Oops, an error
Loading. Please wait.

Riding On The Wind Tab

version 2
version 2

Whole song

Interactive

6,744 views 6 this week
3 commentsread comments
1 2 3 4 5
accurate
x 3
add to favorites
launch autoscroll
font size
0
reset
how to read this tab
guitar tuner
Autoscroll
slow
fast
+/-
esc
set tempo
stop
Help us to improve Ultimate-Guitar.com Take our survey!
×
Contributor
Bitchslap 469
x = palm mute

Main riff:
E |------------------------------------------------------------|
H |------------------------------------------------------------|
G |----7-9-7-----7-9-7-------7-9-7-----7-9-7-------------------|
D |-4--7-9-7--4--7-9-7-2--4--7-9-7--4--7-9-7-2-----------------|
A |-2---------2--------0--2---------2--------0-----------------|
E |------------------------------------------------------------|

Riff 2:
E |------------------------------------------------------------|
H |------------------------------------------------------------|
G |------------------------------------------------------------|
D |-4--7------4--7---------------------------------------------|
A |-2--5--7---2--5--7------------------------------------------|
E |-------5---------5------------------------------------------|

Chorus:
E |------------------------------------------------------------|
H |------------------------------------------------------------|
G |-------------7-9-7-----7-9-7--------------------------------|
D |-------7--4--7-9-7--4--7-9-7-2------------------------------|
A |-2--7--5--2---------2--------0------------------------------|
E |-0--5-------------------------------------------------------|

Interlude:
E |------------------------------------------------------------|
H |------------------------------------------------------------|
G |------------------------------------------------------------|
D |-4-2------------4-2------------4-2------------4-2-----------|
A |-----4-3-2-0--------4-3-2-0--------4-3-2-0--------4-3-2-0---|
E |-------------2--------------2--------------2--------------2-|

Riff 3 (Riding ... On the wind):
E |-------------------------------------------------------------|
H |-------------------------------------------------------------|
G |-------------------------------------------------------------|
D |-4--4-4-4-4-4-4-4-4-4-4-4-4-4---------0----------------------|
A |-2--2-2-2-2-2-2-2-2-2-2-2-2-2--2--0-2---4-2-4---0------------|
E |-------------------------------0--------------2--------------|
       x x x x     x x x x x x 

E |-------------------------------------------------------------|
H |-------------------------------------------------------------|
G |---------------------------------------0---------------------|
D |-4--4-4-4-4-4-4-4-4-4-4-4-4-4------0-2---4-2-4---0-----------|
A |-2--2-2-2-2-2-2-2-2-2-2-2-2-2---2--------------2-------------|
E |--------------------------------0----------------------------|
       x x x x     x x     x x x

E |-------------------------------------------------------------|
H |-------------------------------------------------------------|
G |-------------------------------------------------------------|
D |-4--4-4-4-4-4-4-4-4-4-4-4-4-4---------0----------------------|
A |-2--2-2-2-2-2-2-2-2-2-2-2-2-2--2--0-2---4-2-4---0------------|
E |-------------------------------0--------------2--------------|
       x x x x     x x x x x x 

Bridge:
E |--------------------------------------------------------------|
H |--------------------------------------------------------------|
G |--------------------------------------------------------------|
D |-------------4------------------------------------------------|
A |-5--5--2--4--2------------------------------------------------|
E |-3--2--0--2---------------------------------------------------|

Ending:
E |---------------------------------------------------------------|
H |---------------------------------------------------------------|
G |---------------------------------------------------------------|
D |-7-----7-----7-----------2-----4-------------------------------|
A |-5--7--5--7--5--7--5--2--0---4-2-------------------------------|
E |----5-----5-----5--3--0------2---------------------------------|


Main riff x 4
Riff 2 x 4
Main riff x 4
Chorus x 2
Riff 2 x 2
Main riff x 4
Riff 2 x 4
Interlude
Riff 2 x 4
Solos (Chorus) x 4
Riff 3 x 3
Bridge
Riff 2 x 4
Main riff x 4
Chorus x 2
Riff 2 x 4
Ending
Suggest correction new What's this?
You can suggest a correction to this tab. Community and Mods will review your correction and vote to approve or reject it.
comments
We did not receive enough feedback on this tab! Please rate:
print report bad tab
1 2 3 4 5
3 comments total.
0 reply
eskimokid 15 wrote on February 15 2009, 01:39 pm

great tab

0 reply
x3ric 55 wrote on September 23 2009, 02:05 pm

Great tab, just needs the solos.

0 reply
Rockdinosaur666 12 wrote on May 26 2014, 03:58 pm

Just as Priest play it live but, I persoanlly, prefer playing the opening riff at the 7th fret with my thumb covering the B root note. Much easier.

guest
You may want to rate the tab now too:
select rating
Please do not post tabs as comments. Select "correction" instead!