Oops, an error
Loading. Please wait.

Rock Hard Ride Free Bass Tab

version 1
version 1

Whole song

1,015 views 1 this week
no commentswrite comment
1 2 3 4 5
please rate
add to favorites
launch autoscroll
font size
0
reset
guitar tuner
Tab Pro tools
  • play this tab
  • loop segment
  • change instrument
  • show fretboard
  • metronome
×
Best way to learn
"Rock Hard Ride Free"
Autoscroll
slow
fast
+/-
esc
set tempo
stop
Contributor
Difficulty
intermediate
Judas priest
Rock hard ride free
Album: defenders of faith
Ian hill
Music by rob halford kk downing and glenn tipton

Main riff

G|-------------------|-------------------|-------------------|
D|-------------------|-------------------|-------------------|
A|-------------------|--0----------------|-------------------|
E|-------------------|-------------------|--1----------------|

|-------------------|-------------------|-------------------|
|-------------------|-------------------|-------------------|
|--0----------------|-------------------|-------------------|
|-------------------|--1----------------|--3----------------|


Solo 1 riff 2

------------------------|--------------------------|--------------------------|------------------|
------------------------|--------------------------|-----------------------2--|--0---------------|
--0--0--0--0--0--0--0---|--------------------------|--------------------------|-----3--2----0----|
----------------------1-|--1--1--1--1--1--1--1--3--|--3--3--3--3--3--3--3-----|------------------|

                    
--------------------------|--------------------------|--------------------------|
--------------------------|--------------------------|--------------------------|
--0--0--0--0--0--0--0-----|--------------------------|--------------------------|
-----------------------1--|--1--1--1--1--1--1--1--3--|--3--3--3--3--3--3--3--0--|

------------------------|--------------------------|--------------------------|
------------------------|--------------------------|--------------------------|
------------------------|--0--0--0--0--0--0--0--0--|--------------------------|
--0--0--0--0--0----3----|--------------------------|--1--1--1--1--1--1--1--1--|

--------------------------|------------------------|--------------------------|
--------------------------|------------------------|--------------------------|
--------------------------|------------------------|--0--0--0--0--0--0--0--0--|
--3--3--3--3--3--3--3--3--|--0--0--0--0--0----0----|--------------------------|

--------------------------|--------------------------|------------|------------------|
--------------------------|--------------------------|------------|------------------|
--------------------------|--------------------------|------------|----0-------------|
--1--1--1--1--1--1--1--1--|--3--3--3--3--3--3--3--3--|--0---------|-----------0--3---|

Riff 3 
Verse 1 & 2
|--------------------|-----------------------|------------|------------------------|
|--------------------|-----------------------|------------|------------------------|
|--0-----------------|-----------------------|--0------3--|---2--0-----------2--0--|
|--------------3--3--|-----3-------0----3----|------------|----------3----0--------|

-------------|-------------------|---------------|------------------------|
-------------|-------------------|---------------|-----------0-------0----|
-------------|-------------------|--0---------3--|----2--0--------3-------|
-------3--3--|----3----0----3----|---------3-----|------------------------|


Pre chorus 
Riff 4
--------------------------|--------------------------|--------------------------|
--0--0--0--0--0--0--0--0--|--0--0--0--0--0--0--0--0--|--0--0--0--0--0--0--0--0--|
--------------------------|--------------------------|--------------------------|
--------------------------|--------------------------|--------------------------|

-------------------------|--------------------------|--------------------------|
--0--0--0--0--0--0--0----|--3--3--3--3--3--3--3--3--|--3--3--3--3--3--3--3--3--|
-------------------------|--------------------------|--------------------------|
-------------------------|--------------------------|--------------------------|

--------------------------|---------------------|
--0--0--0--0--0--0--0--0--|---------------------|
--------------------------|---------------------|
--------------------------|--0------3------0----|


Chorus 
Riff 5
|--------------------------|--------------------------|
|--------------------------|--------------------------|
|--0--0--0--0--0--0--0--0--|--0--0--0--0--0--0--0--2--|
|--------------------------|--------------------------|

|----------------|----------------|--------------------------|-------------------------|
|----------------|----------------|--------------------------|-------------------------|
|-----3----------|----------------|--0--0--0--0--0--0--0--0--|--0--0--0--0--0--0--0----|
|-------------1--|------3----3----|--------------------------|-------------------------|

|---------------------|--------------------------|------------------------|
|--3------------------|--------------------------|-----------2------------|
|---------3-----------|--------------------------|------------------------|
|----------------3----|--3--3--3--3--3--3--3--4--|--4--0--4-----0----3----|

Brideg 
 Riff 6                                                         

|--------------------|---------------------|---------------------|
|--3-----------------|---------------------|-------0--0----0-----|
|--------3-----------|---------2------3----|---3-----------------|
|--------------0--1--|--3------------------|------------------0--|


|----------------------|
|----------------------|
|----------------------| (8x)
|--0----0----0----0----|

Solo Glenn riff 7

|-----------------------|-------------------|-------------------|
|-----------------------|-------------------|-------------------|
|--0--0--0--0--0--------|-------------------|-------------------|
|-----------------------|--1----------------|--3----------------|


|-----------------------|-------------------|-------------------|
|--2----0---------------|-------------------|-------------------|
|------------3--2----0--|--0----------------|-------------------|
|-----------------------|-------------------|--1----------------|

|----------------|--------------------------|-------------------|-------------------|
|----------------|--------------------------|-------------------|-------------------|
|----------------|--------------------------|--0----------------|-------------------|
|--3-------------|--0--0--0--0--0--0--0--0--|-------------------|--1----------------|

|--------------|-----------------------|---------------|-----------|-------------------|
|--------------|--2----0---------------|---------------|-----------|-------------------|
|--------------|------------3--2----0--|--0------------|-----------|-------------------|
|--3-----------|-----------------------|---------------|--1--------|--3----------------|


Kk solo 
Riff 8
|-------------------|--------------------|------------------|-----------------|
|-------------------|--------------------|------------------|--------------0--|
|-------------------|-----------------0--|------------------|-----------------| (4x)
|--0----------------|--1-----------------|---------------3--|-----------------|

|---------------------|
|--L--------2----2----|
|---------------------|
|---------------------|

Structure song
Riff 1 intro 
Riff 2 solo glenn
Riff 3 verse 1
Riff 4 prechorus
Riff 5 chorus
Riff 3 versr 2
Riff 4 prechorus
Riff 5 chorus
Riff 6 brideg
Riff 7 solo glenn 2
Riff 8(x4) kk solo
Riff intro 1 
Riff 2 verse 3
Prechorus
Chorus 
Fade out


judas priest forever ¡¡¡¡¡¡¡¡¡¡¡¡¡
enjoy the tab , this was made in guitar pro 
comments
We did not receive enough feedback on this tab! Please rate:
print report bad tab
1 2 3 4 5
I want to post or [tab]
guest
You may want to rate the tab now too:
select rating
Please do not post tabs as comments. Select "correction" instead!