Oops, an error
Loading. Please wait.

Rock Hard Ride Free Tab

version 1
version 1

Whole song

13,628 views 36 this week
no commentswrite comment
1 2 3 4 5
x 5
add to favorites
launch autoscroll
font size
0
reset
how to read this tab
guitar tuner
backing track
0:00
0:00
×
Best way to learn
"Rock Hard Ride Free"
Autoscroll
slow
fast
+/-
esc
set tempo
stop
Judas Priest
Rock Hard Ride Free

Gtr I (E A D G B E) - 'Untitled'
Gtr II (E A D G B E) - 'Untitled'
Gtr III (E A D G B E) - 'Untitled'

[Intro]
   Q=130
  4/4
   Gtr I
e|-12----12----10----10----|-8---8---7---7---|-12----12----10----10----|
B|----10----10----10----10-|---6---6---6---6-|----10----10----10----10-|
G|-------------------------|-----------------|-------------------------|
D|-------------------------|-----------------|-------------------------|
A|-------------------------|-----------------|-------------------------|
E|-------------------------|-----------------|-------------------------|
|
 | Gtr II
e|-------------------------|-----------------|-------------------------|
B|-------------------------|-----------------|-------------------------|
G|-------------------------|-----------------|-------------------------|
D|-------------------------|-----------------|-------------------------|
A|-------------------------|-----------------|-------------------------|
E|-------------------------|-----------------|-------------------------|

e|-8---8---7-------|-12----12----10----10----|
B|---6---6---6-5---|----10----10----10----10-|
G|---------------5-|-------------------------|
D|-----------------|-------------------------|
A|-----------------|-------------------------|
E|-----------------|-------------------------|
|
 |                   Gtr II
e|-----------------|-------------------------|
B|-----------------|-------------------------|
G|-----------------|-------------------------|
D|-----------------|--7----------------------|
A|-----------------|--7----------------------|
E|-----------------|--5----------------------|

e|--8----8---7---7---|-12----12----10----10----|
B|-----6---6---6---6-|----10----10----10----10-|
G|-------------------|-------------------------|
D|-------------------|-------------------------|
A|-------------------|-------------------------|
E|-------------------|-------------------------|
|
e|-------------------|-------------------------|
B|-------------------|-------------------------|
G|-------------------|-------------------------|
D|-(7)---------------|--3----------------------|
A|-(7)---------------|--3----------------------|
E|-(5)---------------|--1----------------------|

e|--8----8---7-------|-12----12----10----10----|
B|-----6---6---6-5---|----10----10----10----10-|
G|-----------------5-|-------------------------|
D|-------------------|-------------------------|
A|-------------------|-------------------------|
E|-------------------|-------------------------|
|
e|-------------------|-------------------------|
B|-------------------|-------------------------|
G|-------------------|-------------------------|
D|-(3)---------------|--7----------------------|
A|-(3)---------------|--7----------------------|
E|-(1)---------------|--5----------------------|

e|--8----8---7---7---|-12----12----10----10----|
B|-----6---6---6---6-|----10----10----10----10-|
G|-------------------|-------------------------|
D|-------------------|-------------------------|
A|-------------------|-------------------------|
E|-------------------|-------------------------|
|
e|-------------------|-------------------------|
B|-------------------|-------------------------|
G|-------------------|-------------------------|
D|-(7)---------------|--3----------------------|
A|-(7)---------------|--3----------------------|
E|-(5)---------------|--1----------------------|

                                             ~~~~
e|-8---8---7-------|---------------------|-----------17----|---------------22--|
B|---6---6---6-5---|-20b22------18p17h18-|-(18)---------20-|-(20)\------20-----|
G|---------------5-|---------------------|-----------------|-------------------|
D|-----------------|---------------------|-----------------|-------------------|
A|-----------------|---------------------|-----------------|-------------------|
E|-----------------|---------------------|-----------------|-------------------|
|
e|-----------------|---------------------|-----------------|-------------------|
B|-----------------|---------------------|-----------------|-------------------|
G|-----------------|---------------------|-----------------|----------------9--|
D|-5---------------|--7----------------3-|--(3)----------5-|--(5)-----------9--|
A|-5---------------|--7----------------3-|--(3)----------5-|--(5)-----------7--|
E|-3---------------|--5----------------1-|--(1)----------3-|--(3)--------------|

e|-(22)-----------------------|-------------------|
B|------20-20-----------------|-------------------|
G|------------16-(16)---17-14-|-(14)--------4---5-|
D|----------------------------|-----------7-------|
A|----------------------------|-------------------|
E|----------------------------|-------------------|
|
e|----------------------------|-------------------|
B|----------------------------|-------------------|
G|--(9)-----7------5--4-----2-|--(2)--------------|
D|--(9)-----7------5--4-----2-|--(2)----------3---|
A|--(7)-----5------3--2-----0-|--(0)----------3---|
E|----------------------------|---------------1---|

e|-----------5-[8]-([8])-----|--5--7h8p7p5-----7h8p7p==5--|
B|-----5-6-8-----------------|-------------8p5------------|
G|--7------------------------|----------------------------|
D|---------------------------|----------------------------|
A|---------------------------|----------------------------|
E|---------------------------|----------------------------|
|
e|---------------------------|----------------------------|
B|---------------------------|----------------------------|
G|---------------------------|----------------------------|
D|-(3)---------------------5-|-(5)-------------------2----|
A|-(3)---------------------5-|-(5)-------------------2----|
E|-(1)---------------------3-|-(3)-------------------0----|

e|-----------------------|-------------------|-------------------|
B|--8p=5-----------------|-------------------|-------------------|
G|-------7p5-5tr4--5--4--|-----------4-(4)-5-|-5---5-5-5-4-(4)---|
D|-----------------------|-7---7-7-7---------|-----------------7-|
A|-----------------------|-------------------|-------------------|
E|-----------------------|-------------------|-------------------|
|
e|-----------------------|-------------------|-------------------|
B|-----------------------|-------------------|-------------------|
G|-----------------------|-------------------|-------------------|
D|-(2)-------------2--5--|-7-----------------|-3-----------------|
A|-(2)-------------2--5--|-7-----------------|-3-----------------|
E|-(0)-------------0--3--|-5-----------------|-1-----------------|
|
 |                 Gtr III
e|-----------------------|-------------------|-------------------|
B|-----------------5-----|-----------------5-|-5---5-5-5---------|
G|--------------------7--|-5---5-5-5-7-(7)---|-----------7-(7)-5-|
D|-----------------------|-------------------|-------------------|
A|-----------------------|-------------------|-------------------|
E|-----------------------|-------------------|-------------------|

e|-------------------|-----------7-8-7-|---------------7-(7)-8-|
B|-------------------|---------9-------|-10---10-10-10---------|
G|-----------------4-|-------9---------|-----------------------|
D|-5---5-5-5-7-(7)---|-6---6-----------|-----------------------|
A|-------------------|---7-------------|-----------------------|
E|-------------------|-----------------|-----------------------|
|
e|-------------------|-----------------|-----------------------|
B|-------------------|-----------------|-----------------------|
G|-------------------|-----------------|-----------------------|
D|-5-----------------|-2---------------|--7--------------------|
A|-5-----------------|-2---------------|--7--------------------|
E|-3-----------------|-0---------------|--5--------------------|
|
e|-------------------|-----------------|-----------------------|
B|-------------------|-----------5-----|---------------------5-|
G|-4---4-4-4-5-(5)-7-|-4---4-5-7---5-4-|--5----5--5--5-7-(7)---|
D|-------------------|---6-------------|-----------------------|
A|-------------------|-----------------|-----------------------|
E|-------------------|-----------------|-----------------------|

e|-8---8-8-8-7-(7)----|---------------12-16-|-17-12-------------------|
B|-----------------10-|-8---8-8----12-------|-------13-12-13-12-------|
G|--------------------|---------12----------|-------------------14-13-|
D|--------------------|---------------------|-------------------------|
A|--------------------|---------------------|-------------------------|
E|--------------------|---------------------|-------------------------|
|
e|--------------------|---------------------|-------------------------|
B|--------------------|---------------------|-------------------------|
G|--------------------|---------------------|-------------------------|
D|-3------------------|-5-------------------|--2----------------------|
A|-3------------------|-5-------------------|--2----------------------|
E|-1------------------|-3-------------------|--0----------------------|
|
e|--------------------|---------------------|-12-10-12-10-12-10--8----|
B|-5---5-5-5----------|----------------9-12-|----------------------12-|
G|-----------7-(7)--5-|-4---4-4--4--7-------|-------------------------|
D|--------------------|---------------------|-------------------------|
A|--------------------|---------------------|-------------------------|
E|--------------------|---------------------|-------------------------|

[Verse]
                                  ~~~
e|-----------------------------|--------------||-------------|---------------|
B|-----------------------------|--------------||o------------|---------------|
G|-14p=13----------------------|--------------||-------------|---------------|
D|--------14-------------------|--------2--5--||--7------7-5-|-(5)----2--5---|
A|-----------15-14-15-14-12-11-|-12-----2--5--||o-7------7-5-|-(5)----2--5---|
E|-----------------------------|--------0--3--||--5------5-3-|-(3)----0--3---|
|
e|-----------------------------|--------------||-------------|---------------|
B|-----------------------------|--------------||o------------|---------------|
G|-----------------------------|--------------||-------------|---------------|
D|-(2)-------------------------|--7-----2--5--||--7------7-5-|-(5)----2--5---|
A|-(2)-------------------------|--7-----2--5--||o-7------7-5-|-(5)----2--5---|
E|-(0)-------------------------|--5-----0--3--||--5------5-3-|-(3)----0--3---|
|
 |                                >
e|-12---------8-10--8----------|--------------||-------------|---------------|
B|--------12----------12-10--9-|-10\----------||o------------|---------------|
G|-----------------------------|--------------||-------------|---------------|
D|-----------------------------|--------------||-------------|---------------|
A|-----------------------------|--------------||o------------|---------------|
E|-----------------------------|--------------||-------------|---------------|

   Gtrs I, II
e|-----------|---------------------|--------------|--------------|
B|-----------|---------------------|--------------|--------------|
G|-----------|---------------------|--------------|--------------|
D|-7---------|-------------------7-|-(7)------7-5-|-(5)----2--5--|
A|-7-------3-|-(3)-2-0-----------7-|-(7)------7-5-|-(5)----2--5--|
E|-5---------|---------3-(3)-0-7-5-|-(5)------5-3-|-(3)----0--3--|

[Pre-Chorus]
                                       PM
e|-------------|--------------------||-----------------|-----------------|
B|-------------|--------------------||-----------------|-----------------|
G|-------------|--------------------||-5-----4-----2---|-----5---4---2---|
D|-7-----------|--------------------||-0-0-0-0-0-0-0-0-|-0-0-0-0-0-0-0-0-|
A|-7-----x-x-3-|-(3)-2-0-5-(5)-3-5--||-----------------|-----------------|
E|-5-----------|--------------------||-----------------|-----------------|

   PM
e|-----------------|-----------------|-----------------|----------------|
B|-----------------|-----------------|-----------------|----------------|
G|-5-----4-----2---|-----5---4---2---|-5-----4-----2---|-----5---4---2--|
D|-0-0-0-0-0-0-0-0-|-0-0-0-0-0-0-0-0-|-3-3-3-3-3-3-3-3-|-3-3-3-3-3-3-3--|
A|-----------------|-----------------|-----------------|----------------|
E|-----------------|-----------------|-----------------|----------------|

                                      To Coda
e|---------------------------|---------------||
B|---------------------------|---------------||
G|-5-(5)-(5)-4-(4)-(4)-2-(2)-|---------------||
D|-0-(0)-(0)-0-(0)-(0)-0-(0)-|-2---5-(5)--2--||
A|---------------------------|-2---5-(5)--2--||
E|---------------------------|-0---3-(3)--0--||

[Chorus]
e|----------------|-------------------|-----------------|
B|-----5-(5)------|--------3--(3)---3-|-(3)-------------|
G|-----5-(5)------|--------4--(4)---0-|-(0)---5-(5)-----|
D|-7---7-(7)------|--------5--(5)---0-|-(0)---5-(5)---3-|
A|-7---0-(0)--0-0-|-0-0-0-(0)-(0)---2-|-(2)---3-(3)---3-|
E|-5--------------|-------------------|---------------1-|

e|----------------|----------------|
B|----------------|-----5-(5)------|
G|----------------|-----5-(5)------|
D|-(3)---5-(5)----|-7---7-(7)------|
A|-(3)---5-(5)----|-7---0-(0)--0-0-|
E|-(1)---3-(3)----|-5--------------|

                      1.
e|------------------|---------------|-------------|
B|--------3--(3)----|---------------|-------------|
G|--------4--(4)----|-----5-(5)-----|-------------|
D|--------5--(5)----|-3---5-(5)--5--|-(5)---------|
A|-0-0-0-(0)-(0)----|-3---3-(3)--5--|-(5)---------|
E|------------------|-1----------3--|-(3)-------4-|

                       2.
e|------------------||----------------|---------------|---------------||
B|-----------------o||----------------|---------------|---------------||
G|------------------||-----5-(5)------|-----4-(4)--5--|-(5)--5--5--7--||
D|---------2-2--5---||-3---5-(5)------|-5---4-(4)--5--|-(5)--5--5--7--||
A|-----------2--5--o||-3---3-(3)------|-5---2-(2)--3--|-(3)--3--3--5--||
E|-(4)-0-4---0--3---||-1----------0-1-|-3-------------|---------------||

[Bridge]
e|--------------|-----------------|--------------|----------------------|
B|--------------|-----------------|--------------|----------------------|
G|-9--2--2------|-2---0-(0)---9-9-|-9--2--2------|-----0-(0)------------|
D|-9--4--4------|-4---2-(2)---9-9-|-9--4--4------|-4---0-(0)------------|
A|-7--------0-0-|-5-----------7-7-|-7--------x-x-|-5---------x-x-x-x-x--|
E|-0--------0-0-|-------------0-0-|-0------------|----------------------|


e|--------------|-----------------|--------------|-2---3-(3)--2-------||
B|--------------|-----------------|--------------|-3---0-(0)--3-------||
G|-9--2--2------|-2---0-(0)---9-9-|-9--2--2------|-2---0-(0)--2-2b3r==||
D|-9--4--4------|-4---2-(2)---9-9-|-9--4--4------|-0---0-(0)--0-------||
A|-7--------x-x-|-5-----------7-7-|-7--------x-x-|--------------------||
E|-0------------|-------------0-0-|-0------------|--------------------||

[Guitar Solo 1]
   Gtr I
           T    T           T    T        T  T
e|-----------------------|---------------------------|
B|-----------------------|---------------------------|
G|-(2)----14--(14)-2p0h2-|-12--(12)-2p0h2-9--9-2p0h2-|
D|-----------------------|---------------------------|
A|-----------------------|---------------------------|
E|-----------------------|---------------------------|
|
 | Gtr II
e|-----------------------|---------------------------|
B|-----------------------|---------------------------|
G|-----------------------|---------------------------|
D|--7--------------------|--3------------------------|
A|--7--------------------|--3------------------------|
E|--5--------------------|--1------------------------|

e|----------------------------|
B|-1---1s3---3s5---5s8----8s==|
G|---4-----5-----7-----10-----|
D|----------------------------|
A|----------------------------|
E|----------------------------|
|
e|----------------------------|
B|----------------------------|
G|----------------------------|
D|-5--------------------------|
A|-5--------------------------|
E|-3--------------------------|

e|-------------------------12-15-|-15b17r===15-15-12-------------|
B|-10----10s12----12-13-15-------|-------------------15b17r15-13-|
G|----12-------14----------------|-------------------------------|
D|-------------------------------|-------------------------------|
A|-------------------------------|-------------------------------|
E|-------------------------------|-------------------------------|
|
e|-------------------------------|-------------------------------|
B|-------------------------------|-------------------------------|
G|--9--------7--------5--4-------|-------------------------------|
D|--9--------7--------5--4-----7-|-(7)---------------------------|
A|--7--------5--------3--2-----7-|-(7)---------------------------|
E|-----------------------------5-|-(5)---------------------------|

e|-------------------|------5------------------|
B|-15b17r13----------|-8b10---8----------------|
G|----------14\------|----------7b9r7-7p5-7----|
D|-------------------|-------------------------|
A|-------------------|-------------------------|
E|-------------------|-------------------------|
|
e|-------------------|-------------------------|
B|-------------------|-------------------------|
G|-------------------|-------------------------|
D|--3----------------|-5-----------------------|
A|--3----------------|-5-----------------------|
E|--1----------------|-3-----------------------|

e|-------------------------|------------------5-|-7h8-5--0-5-5-7-0-0-7-|
B|-------------------------|------------5-6-8---|----------------------|
G|-------------------------|-4h5----5-7---------|----------------------|
D|---7-7p5-----------------|-----7--------------|----------------------|
A|---------7p5-7s5-3-5p3---|--------------------|----------------------|
E|-----------------------5-|--------------------|----------------------|
|
e|-------------------------|--------------------|----------------------|
B|-------------------------|--------------------|----------------------|
G|-------------------------|--------------------|----------------------|
D|-2-----------2-----5-----|-7------------------|-3--------------------|
A|-2-----------2-----5-----|-7------------------|-3--------------------|
E|-0-----------0-----3-----|-5------------------|-1--------------------|

e|-8-0-0-8-10-8-0-10-12-12-12-13-13-13-15-15-|
B|-------------------------------------------|
G|-------------------------------------------|
D|-------------------------------------------|
A|-------------------------------------------|
E|-------------------------------------------|
|
e|-------------------------------------------|
B|-------------------------------------------|
G|-------------------------------------------|
D|-5-----------------------------------------|
A|-5-----------------------------------------|
E|-3-----------------------------------------|

e|-15-17-17-17-19-19-19-19-20-20-19-19-22b24r22-|-22b24r22----|
B|----------------------------------------------|-------------|
G|----------------------------------------------|-------------|
D|----------------------------------------------|-------------|
A|----------------------------------------------|-------------|
E|----------------------------------------------|-------------|
|
e|----------------------------------------------|-------------|
B|----------------------------------------------|-------------|
G|--9-----------7-----------5-----4-------------|-------------|
D|--9-----------7-----------5-----4-----------7-|--------7----|
A|--7-----------5-----------3-----2-----------7-|--------7----|
E|--------------------------------------------5-|--------5----|

e|---19-19-20-(20)b22r(20)b22r20-17-17-------|
B|-------------------------------------20b22r|
G|-------------------------------------------|
D|-------------------------------------------|
A|-------------------------------------------|
E|-------------------------------------------|
|
e|-------------------------------------------|
B|-------------------------------------------|
G|-------------------------------------------|
D|-3-----------------------------------------|
A|-3-----------------------------------------|
E|-1-----------------------------------------|

             ~~
e|----20b22---------17----------------|
B|-20-------20--20-----20-17----------|
G|---------------------------19b21r19-|
D|------------------------------------|
A|------------------------------------|
E|------------------------------------|
|
e|------------------------------------|
B|------------------------------------|
G|------------------------------------|
D|--5---------------------------------|
A|--5---------------------------------|
E|--3---------------------------------|

                                                [Guitar Solo 2]
e|--------------------------------17-------20-||-(20)--------------------|
B|--------------------------20-17----20-17----||-------------------------|
G|-(19)-(19)-17-17-19b21r19-------------------||-------------------------|
D|--------------------------------------------||-------------------------|
A|--------------------------------------------||-------------------------|
E|--------------------------------------------||-------------------------|
|
e|--------------------------------------------||-------------------------|
B|--------------------------------------------||-------------------------|
G|--------------------------------------------||-------------------------|
D|---2----------------------------------------||---3-------------------7-|
A|---2----------------------------------------||---3-------------------7-|
E|---0----------------------------------------||---1-------------------5-|
|
 |                                               Gtr III
e|--------------------------------------------||-----------17-19-(19)-20-|
B|--------------------------------------------||--20b22r=================|
G|--------------------------------------------||-------------------------|
D|--------------------------------------------||-------------------------|
A|--------------------------------------------||-------------------------|
E|--------------------------------------------||-------------------------|

e|-----------------|----------------------------------------|
B|-----------------|----------------------------------------|
G|-----------------|----------------------------------------|
D|-----------------|----------------------------------------|
A|-----------------|----------------------------------------|
E|-----------------|----------------------------------------|
|
e|-----------------|----------------------------------------|
B|-----------------|----------------------------------------|
G|-----------------|-------------------------------------7--|
D|----(7)--------5-|--(5)--------------------------------7--|
A|----(7)--------5-|--(5)--------------------------------5--|
E|----(5)--------3-|--(3)-----------------------------------|
|
e|-20-20--------19-|-(19)b21r(19)-(19)-17-------------------|
B|-----------------|----------------------20b22r(20)---(20)-|
G|-----------------|----------------------------------------|
D|-----------------|----------------------------------------|
A|-----------------|----------------------------------------|
E|-----------------|----------------------------------------|

e|-----------------------------------------------|
B|-----------------------------------------------|
G|-----------------------------------------------|
D|-----------------------------------------------|
A|-----------------------------------------------|
E|-----------------------------------------------|
|
e|-----------------------------------------------|
B|-----------------------------------------------|
G|-(7)-------------------------------------------|
D|-(7)--------------------------------------3----|
A|-(5)--------------------------------------3----|
E|------------------------------------------1----|
|
e|-17--------------------------------------------|
B|-----20-17-------17-20-17----17----------------|
G|-----------19b21----------19----17-17s16-------|
D|-----------------------------------------19-17-|
A|-----------------------------------------------|
E|-----------------------------------------------|

e|-------------------------------|-------------------------|
B|-------------------------------|-------------------------|
G|-------------------------------|-------------------------|
D|-------------------------------|-------------------------|
A|-------------------------------|-------------------------|
E|-------------------------------|-------------------------|
|
e|-------------------------------|-------------------------|
B|-------------------------------|-------------------------|
G|-------------------------------|-------------------------|
D|-(3)-----------------------7---|-(7)---------------5-----|
A|-(3)-----------------------7---|-(7)---------------5-----|
E|-(1)-----------------------5---|-(5)---------------3-----|
|
e|-------------------------------|-------------------------|
B|-------------------------------|-------------------------|
G|---------------------------4b6r|==4----------------------|
D|-19b21-(19)r(19)-(19)\---------|-----5-0-----------------|
A|-------------------------------|---------3-2h3p2---------|
E|-------------------------------|-----------------5-3b5r==|

e|----------------------|-------------------------------|
B|----------------------|-------------------------------|
G|----------------------|-------------------------------|
D|----------------------|-------------------------------|
A|----------------------|-------------------------------|
E|----------------------|-------------------------------|
|
e|----------------------|-------------------------------|
B|----------------------|-------------------------------|
G|------------------7---|-(7)---------9---(9)-----------|
D|-(5)--------------7---|-(7)---------9---(9)-------3---|
A|-(5)--------------5---|-(5)---------7---(7)-------3---|
E|-(3)------------------|---------------------------1---|
|
e|----------------------|-------------------------------|
B|----------------------|-------------------------------|
G|----------------------|-------------------------------|
D|----------------------|---------------------0h2p0---5-|
A|--------------0-2---3-|---------0-2---3-----------7---|
E|--3-----0-1-3---------|--0--1-3-----------------------|

e|-------------------------|
B|-------------------------|
G|-------------------------|
D|-------------------------|
A|-------------------------|
E|-------------------------|
|
e|-------------------------|
B|-------------------------|
G|-------------------------|
D|-(3)----------------7----|
A|-(3)----------------7----|
E|-(1)----------------5----|
|
e|-------------------------|
B|-------------------------|
G|-------5-7b9r=7b9r7-5-7--|
D|--7----------------------|
A|-------------------------|
E|-------------------------|

e|--------------------|
B|--------------------|
G|--------------------|
D|--------------------|
A|--------------------|
E|--------------------|
|
e|--------------------|
B|--------------------|
G|--------------------|
D|-(7)--------------5-|
A|-(7)--------------5-|
E|-(5)--------------3-|
|
e|--5---------------7-|
B|-----5-8-8-8b10r====|
G|--------------------|
D|--------------------|
A|--------------------|
E|--------------------|

e|--------------------------------------|---------------------|
B|--------------------------------------|---------------------|
G|--------------------------------------|---------------------|
D|--------------------------------------|---------------------|
A|--------------------------------------|---------------------|
E|--------------------------------------|---------------------|
|
e|--------------------------------------|---------------------|
B|--------------------------------------|---------------------|
G|---------------------------------7----|-(7)-----------------|
D|-(5)-----------------------------7----|-(7)--------------3--|
A|-(5)-----------------------------5----|-(5)--------------3--|
E|-(3)----------------------------------|------------------1--|
|
e|-(7)-8p7------------------------------|---------------------|
B|---------10-8-------------------------|---------------------|
G|--------------9p7---------------------|---------------------|
D|------------------10-9h10p9-10p9p7----|--7b9r7-7-(7)--------|
A|-----------------------------------10-|---------------------|
E|--------------------------------------|---------------------|

e|----------------------------|-----------------------------|
B|----------------------------|-----------------------------|
G|----------------------------|-----------------------------|
D|----------------------------|-----------------------------|
A|----------------------------|-----------------------------|
E|----------------------------|-----------------------------|
|
e|----------------------------|-----------------------------|
B|----------------------------|-----------------------------|
G|----------------------------|-----------------------------|
D|-(3)-------------------7----|--(7)----------------------5-|
A|-(3)-------------------7----|--(7)----------------------5-|
E|-(1)-------------------5----|--(5)----------------------3-|
|
e|-----17---------------17-17-|-(17)-19-20-19b21r20-20---19-|
B|--------17-20b22r20---------|-----------------------------|
G|----------------------------|-----------------------------|
D|----------------------------|-----------------------------|
A|----------------------------|-----------------------------|
E|----------------------------|-----------------------------|

e|-----------------------------------------------------|
B|-----------------------------------------------------|
G|-----------------------------------------------------|
D|-----------------------------------------------------|
A|-----------------------------------------------------|
E|-----------------------------------------------------|
|
e|-----------------------------------------------------|
B|-----------------------------------------------------|
G|---------------------------------------------7-------|
D|--(5)----------------------------------------7-------|
A|--(5)----------------------------------------5-------|
E|--(3)------------------------------------------------|
|
e|-(19)-20-19-17-19-17----17---------------------------|
B|---------------------20----20-18-20-17-17-18---17----|
G|--------------------------------------------------19-|
D|-----------------------------------------------------|
A|-----------------------------------------------------|
E|-----------------------------------------------------|

e|---------------------------------------||
B|---------------------------------------||
G|---------------------------------------||
D|---------------------------------------||
A|---------------------------------------||
E|---------------------------------------||
|
e|---------------------------------------||
B|---------------------------------------||
G|-(7)-----------------------------9--9--||
D|-(7)-----------------------------9--9--||
A|-(5)-----------------------------7--7--||
E|---------------------------------------||
|
e|---------------------------------------||
B|---------------------------------------||
G|-17--16-19p16h19p16--------------------||
D|--------------------19-17-19b21r19-----||
A|---------------------------------------||
E|---------------------------------------||

   Gtr I
e|-------------------|-------------------|-------------------|
B|-------------------|-------------------|-------------------|
G|-----------4-(4)-5-|-5---5-5-5-4-(4)---|-----------------4-|
D|-7---7-7-7---------|-----------------7-|-5---5-5-5-7-(7)---|
A|-------------------|-------------------|-------------------|
E|-------------------|-------------------|-------------------|
|
 | Gtr II
e|-------------------|-------------------|-------------------|
B|-------------------|-------------------|-------------------|
G|-------------------|-------------------|-------------------|
D|-7-----------------|-3-----------------|-5-----------------|
A|-7-----------------|-3-----------------|-5-----------------|
E|-5-----------------|-1-----------------|-3-----------------|
|
 | Gtr III
e|-------------------|-------------------|-------------------|
B|-----------------5-|-5---5-5-5---------|-------------------|
G|-5---5-5-5-7-(7)---|-----------7-(7)-5-|-4---4-4-4-5-(5)-7-|
D|-------------------|-------------------|-------------------|
A|-------------------|-------------------|-------------------|
E|-------------------|-------------------|-------------------|

e|-----------7-8-7-|---------------7-(7)-8---|
B|---------9-------|-10---10-10-10-----------|
G|-------9---------|-------------------------|
D|-6---6-----------|-------------------------|
A|---7-------------|-------------------------|
E|-----------------|-------------------------|
|
e|-----------------|-------------------------|
B|-----------------|-------------------------|
G|-----------------|-------------------------|
D|-2---------------|--7----------------------|
A|-2---------------|--7----------------------|
E|-0---------------|--5----------------------|
|
e|-----------------|-------------------------|
B|-----------5-----|---------------------5---|
G|-4---4-5-7---5-4-|--5----5--5--5-7-(7)-----|
D|---6-------------|-------------------------|
A|-----------------|-------------------------|
E|-----------------|-------------------------|

e|-8---8-8-8-7-(7)----|---------------12-16-|
B|-----------------10-|-8---8-8----12-------|
G|--------------------|---------12----------|
D|--------------------|---------------------|
A|--------------------|---------------------|
E|--------------------|---------------------|
|
e|--------------------|---------------------|
B|--------------------|---------------------|
G|--------------------|---------------------|
D|-3------------------|-5-------------------|
A|-3------------------|-5-------------------|
E|-1------------------|-3-------------------|
|
e|--------------------|---------------------|
B|-5---5-5-5----------|----------------9-12-|
G|-----------7-(7)--5-|-4---4-4--4--7-------|
D|--------------------|---------------------|
A|--------------------|---------------------|
E|--------------------|---------------------|

e|-17-12-------------------|-----------------------------|-------|
B|-------13-12-13-12-------|-----------------------------|-------|
G|-------------------14-13-|-14p=13----------------------|-------|
D|-------------------------|--------14-------------------|-------|
A|-------------------------|-----------15-14-15-14-12-11-|-15----|
E|-------------------------|-----------------------------|-------|
|
e|-------------------------|-----------------------------|-------|
B|-------------------------|-----------------------------|-------|
G|-------------------------|-----------------------------|-------|
D|--2----------------------|-(2)-------------------------|--7----|
A|--2----------------------|-(2)-------------------------|--7----|
E|--0----------------------|-(0)-------------------------|--5----|
|
e|-12-10-12-10-12-10--8----|-12---------8-10--8----------|-------|
B|----------------------12-|--------12----------12-10--9-|-10----|
G|-------------------------|-----------------------------|-------|
D|-------------------------|-----------------------------|-------|
A|-------------------------|-----------------------------|-------|
E|-------------------------|-----------------------------|-------|

[Bridge 2]
e|--------------||-12----12----10----10----|--8----8---7---7---|
B|--------------||----10----10----10----10-|-----6---6---6---6-|
G|--------------||-------------------------|-------------------|
D|--------------||-------------------------|-------------------|
A|-(15)---------||-------------------------|-------------------|
E|--------------||-------------------------|-------------------|
|
e|--------------||-------------------------|-------------------|
B|--------------||-------------------------|-------------------|
G|--------------||-------------------------|-------------------|
D|--(7)---------||--3----------------------|-(3)-------3-------|
A|--(7)---------||--3----------------------|-(3)-------3-------|
E|--(5)---------||--1----------------------|-(1)-------1-------|
|
e|--------------||-------------------------|-------------------|
B|-(10)\--------||-------------------------|-------------------|
G|--------------||-------------------------|-------------------|
D|--------------||-------------------------|-------------------|
A|--------------||-------------------------|-------------------|
E|--------------||-------------------------|-------------------|

e|-12----12----10----10----|--8----8---7---7---|
B|----10----10----10----10-|-----6---6---6---6-|
G|-------------------------|-------------------|
D|-------------------------|-------------------|
A|-------------------------|-------------------|
E|-------------------------|-------------------|
|
e|-------------------------|-------------------|
B|-------------------------|-------------------|
G|-------------------------|-------------------|
D|--7----------------------|-(7)-------7-------|
A|--7----------------------|-(7)-------7-------|
E|--5----------------------|-(5)-------5-------|
|
e|-------------------------|-------------------|
B|-------------------------|-------------------|
G|-------------------------|-------------------|
D|-------------------------|-------------------|
A|-------------------------|-------------------|
E|-------------------------|-------------------|

                             3/4
e|-12----12----10----10----||--8----8---7-12-||
B|----10----10----10----10-||-----6---6------||
G|-------------------------||----------------||
D|-------------------------||----------------||
A|-------------------------||----------------||
E|-------------------------||----------------||
|
e|-------------------------||----------------||
B|-------------------------||----------------||
G|-------------------------||----------------||
D|--3----------------------||-(3)-------3--2-||
A|--3----------------------||-(3)-------3--2-||
E|--1----------------------||-(1)-------1--0-||

  4/4                          3/4
e|-(12)----12----10----10----||-8---8---7-12--||
B|------10----10----10----10-||---6---6-------||
G|---------------------------||---------------||
D|---------------------------||---------------||
A|---------------------------||---------------||
E|---------------------------||---------------||
|
e|---------------------------||---------------||
B|---------------------------||---------------||
G|---------------------------||---------------||
D|--(2)----------------------||-2-------2--3--||
A|--(2)----------------------||-2-------2--3--||
E|--(0)----------------------||-0-------0--1--||

  4/4
e|-(12)----12----10----10----|--8----8---7---7---|
B|------10----10----10----10-|-----6---6---6---6-|
G|---------------------------|-------------------|
D|---------------------------|-------------------|
A|---------------------------|-------------------|
E|---------------------------|-------------------|
|
e|---------------------------|-------------------|
B|---------------------------|-------------------|
G|---------------------------|-------------------|
D|--(3)----------------------|-(3)---------------|
A|--(3)----------------------|-(3)---------------|
E|--(1)----------------------|-(1)---------------|

e|-10----10----8---8---|--7----7---5--------|
B|----10----10---6---6-|-----6---6---6-5----|
G|---------------------|-----------------5--|
D|---------------------|--------------------|
A|---------------------|--------------------|
E|---------------------|--------------------|
|
e|---------------------|--------------------|
B|---------------------|--------------------|
G|--7------------------|-(7)----------------|
D|--7------------------|-(7)----------------|
A|--5------------------|-(5)----------------|
E|---------------------|--------------------|

                           D.S. al Coda
e|-----------------|--------------------||
B|-5---------------|--------------------||
G|-----7---5---4---|--------------------||
D|-----------3---2-|-2b4r3tr2----2--5---||
A|-----------------|-------------2--5---||
E|-----------------|-------------0--3---||
|
e|-----------------|--------------------||
B|-----------------|--------------------||
G|-----------------|--------------------||
D|-----------------|--------------------||
A|-----------------|--------------------||
E|-0-0-0-0-0-0-0-0-|-----0--------------||

[Outro]
     Gtrs I, II
e||-------------------|-------------------|-----------------|----------------|
B||o------5--(5)------|--------3--(3)---3-|-(3)-------------|----------------|
G||-------5--(5)------|--------4--(4)---0-|-(0)---5-(5)-----|----------------|
D||-------7--(7)------|--------5--(5)---0-|-(0)---5-(5)---3-|-(3)---5-(5)----|
A||o-0---(0)-(0)--0-0-|-0-0-0-(0)-(0)---2-|-(2)---3-(3)---3-|-(3)---5-(5)----|
E||-------------------|-------------------|---------------1-|-(1)---3-(3)----|

                                                               4x
e|----------------|------------------|---------------|---------||
B|-----5-(5)------|--------3--(3)----|---------------|--------o||
G|-----5-(5)------|--------4--(4)----|-----5-(5)-----|---------||
D|-7---7-(7)------|--------5--(5)----|-3---5-(5)--5--|-(5)-----||
A|-7---0-(0)--0-0-|-0-0-0-(0)-(0)----|-3---3-(3)--5--|-(5)----o||
E|-5--------------|------------------|-1----------3--|-(3)-----||



************************************

| (n)  Ghost note
| h    Hammer-on
| p    Pull-off
| b    Bend
| ~    Vibrato
| [n]  Artificial harmonic (Pinch harmonic)
| tr   Trill
| \    Slide down
| >    Accented note
| x    Dead note
| PM   Palm mute
| r    Release

************************************
Suggest correction
comments
print report bad tab
guest
You may want to rate the tab now too:
select rating
Wanna post a correction for this tab? Suggest correction