Oops, an error
Loading. Please wait.

Rock You All Around The World Tab

version 2
version 2

Whole song

Interactive

1,087 views 3 this week
no commentswrite comment
1 2 3 4 5
1 last vote to show rating
add to favorites
launch autoscroll
font size
0
reset
how to read this tab
guitar tuner
Autoscroll
slow
fast
+/-
esc
set tempo
stop
Help us to improve Ultimate-Guitar.com Take our survey!
×
Difficulty
intermediate
Band  :judas priest 
song : rock you all around the world 
album: turbo
tuning standar
glenn and kk guitar 

Key
= after note = vibrato
^ after note = heavy vibrato 
\ = slide down
/ = slide up
+ = tap
h = hammer
p = pull
n = natural harmonic
s = pinching harmonic (squeal)
* = tremolo pick
t = trill
b = bend
|-3-| = triplet

Intro riff 1

E||---------|--------------------------|---------------------------|
B||---------|--------------------------|---------------------------|
G||---------|--------------------------|---------------------------|
D||------4S-|--6--6--7-----------7-----|-----6-----6-----6-----4S--|
A||------2S-|--4--4--4--4--4--4--4--4--|--4--4--4--4--4--4--4--2S--|
E||---------|--------------------------|---------------------------|

|--------------------------|--------------------------|--------------------------|
|--------------------------|--------------------------|--------------------------|
|--------------------------|--------------------------|--------------------------|
|--6--6--7-----------7-----|-----6-----6-----6-----4--|--6--6--7-----------7-----|
|--4--4--4--4--4--4--4--4--|--4--4--4--4--4--4--4--2--|--4--4--4--4--4--4--4--4--|(x2)
|--------------------------|--------------------------|--------------------------|
 
Intro riff 2

E:---------------------|---------|
B:---------------------|--5-5-4--|
G:---------------------|--4-4-4--|
D:---------------------|--4-4-4--| (repeat this part 2 times before the solo)
A:-------2--1------4---|---------|
E:--2--4------4--2-----|---------|

Verse riff 1 and 2
|-------------------------|-----------------------|--------------------------|
|-------------------------|-----------------------|--------------------------|
|--9----9-----9--9--------|--9--9-----9-----7S----|--------9-----9--9--------|
|--9----9-----9--9--------|--9--9-----9-----7S----|--------9-----9--9--------|
|--7----7-----7--7--------|--7--7-----7-----5S----|--------7-----7--7--------|
|----------0--------0--0--|--------0-----0--------|--0--0-----0--------0--0--|

|-----------------------|------------------------|-------------------------|------------|
|-----------------------|------------------------|-------------------------|---------5--|
|--9------8---7S----7S--|--9----9-----9--9-------|--9--9-----9----7S----4--|---------4--|
|--9------9---7S----7S--|--9----9-----9--9-------|--9--9-----9----7S----4--|--4--4------|
|--7------7---5S----5S--|--7----7-----7--7-------|--7--7-----7----5S----2--|--2--2------|
|----0--0---------------|------ --0--------0--0--|--------0-----0----------|------------|

|----------------|---------------------|--------------------------|------------------------|
|--5---4---------|---------------------|--------------------------|------------------------|
|--4---4------2--|---------------------|-----------------------4--|----4-------------------|
|-------------2--|---------------------|-----------------------4--|----4-------------------|
|----------------|---0--0--0--0--0--0--|--0--0--0--0--0--0--0--2--|---2--2--2--2--2--2--2--|
|----------------|---------------------|--------------------------|------------------------|
 
|--------------------------|-------------------------|--------------------------|
|--------------------------|-------------------------|--------------------------|
|--------------------------|-------------------------|--------------------------|
|-----------------------6--|----6--7-----------7-----|-----6-----6-----6--------|
|--2--2--2--2--2--2--2--4--|----4--4--4--4--4--4--4--|--4--4--4--4--4--4--4--4--|
|--------------------------|-------------------------|--------------------------|

|--------------------------|--------------------------|
|--------------------------|--------------------------|
|--------------------------|--------------------------|
|--6--6--7-----------7-----|--6--4-----4-----4-----4--|
|--4--4--4--4--4--4--4--4--|--4--2-----2-----2-----2--|
|--------------------------|--------------------------|
 
Chorus 

E:---------------------|---------|
B:---------------------|--5-5-4--|
G:---------------------|--4-4-4--|
D:---------------------|--4-4-4--| (x2)
A:-------2--1------4---|---------|
E:--2--4------4--2-----|---------|
 
Brideg
|-------------------|---------------------|--------------------|---------|
|---------------10--|---10----9S----------|--------------------|---------|
|-7--------------9--|---9-----9S-------7--|----------7----9----|--6------|
|-7---7---2------7--|---7-----9S-------7--|----7-----7----9----|--6------|
|-5---7---2---------|------------------5--|----7-----5----7----|--4------|
|-----5---0---------|---------------------|----5---------------|---------|
Suggest correction
Give kudos to tab author, rate the tab!
1 2 3 4 5
comments
print report bad tab
guest
You may want to rate the tab now too:
select rating
Wanna post a correction for this tab? Suggest correction