Oops, an error
Loading. Please wait.

Rocka Rolla tab

version 1
version 1

Whole song

Interactive

15,158 views 21 this week
2 commentsread comments
1 2 3 4 5
x 6
add to favorites
×
Save as Personal and add changes to this tab that will be seen only by you. Learn more ›
×
You can save this tab as Personal to edit and correct it or add notes. All changes will be seen only by you. Learn more »
launch autoscroll
font size
0
reset
how to read this tab
guitar tuner
edit
Autoscroll
slow
fast
+/-
esc
set tempo
stop
Date: Mon, 23 Mar 1998 17:51:56 -0800
From: Judy Letostak 
Subject: TAB: Judas Priest - Rocka Rolla

For you Priest fans that actually KNEW this was their first
album, here's another JP classic.  Will do more from this
album (hopefully the whole thing).  And more Hagar...

Enjoy!
-Judy  

lyrics are at the end of this file

[Intro]

|-------------------------------------------------|
|-------------------------------------------------|
|-----2--1------2--1p0-----2--1p0--------3--------|
|-----2--1------2--1p0-----2--1p0--------3--------|
|--0--------0-----------0----------3--0-----------|
|-------------------------------------------------|


[Verse]
[A]
|-------------------------------------------------|
|-------------------------------------------------|
|--2--------5--------7----5----2------------------|
|--2--------5--------7----5----2------------------|
|--0---------------------------0--------------3---|
|-------------------------------------0---3-------|

|-------------------------------------------------|
|-------------------------------------------------|
|--2--------5--------7----5----2------------------|
|--2--------5--------7----5----2------------------|
|--0---------------------------0----------3-------|
|-------------------------------------0-------3---|

[B]
|-------------------------------------------------|
|-------------------------------------------------|
|-------------------------------------------------|
|--2--------5--------7----5-----------------------|
|--2--------5--------7----5----2--------------3---|
|--0---------------------------0------0---3-------|

[A]
|-------------------------------------------------|
|-------------------------------------------------|
|--2--------5--------7----5---------4-------------|
|--2--------5--------7----5----2-------4--5--0----|
|--0----------------------------------------------|
|-------------------------------------------------|


[Chorus]
2x======================
|---------------------------|
|---------------------------|
|---------------------------|
|------------5--------------|
|-2----2-----3----5-----2---|
|-0----0----------3-----0---|


[Lead]
[C]
2x======================================
---------------------------------------------------------
---------------------------------------------------------
------1~-------1~--------1--1--2p1-----1-----------------
-1h2------1h2-------1h2-------------2--------------------
---------------------------------------------------------
---------------------------------------------------------

-------------------------|-------------------------------
-------------------------|-------------------------------
------1~-------2~--0-----|--2p0----2p0-----2p0-----------
-1h2------1h2---------2--|------2-------2-------2--------
-------------------------|-------------------------------
-------------------------|-------------------------------
Play [C] 2x

---------------------------------------------------------
-----2------2-------2--2--3p2-----2--------2-------3--2--
1h2-----1h2----1h2-------------2------1h2-----1h2-------2
---------------------------------------------------------
---------------------------------------------------------
---------------------------------------------------------
[C] 2x

last time end
---------------------------------------------------------
--3--4--5~-----------------------------------------------
---------------------------------------------------------
---------------------------------------------------------
---------------------------------------------------------
---------------------------------------------------------

Intro
Verse
Chorus (fade out)

==============================================================================
h = hammeron                                       ps = pick scrape   
p = pulloff                                        % = repeat phrase
~ = vibrato                                       
b = bend
/\ = Slide
* = Artificial Harmonic
x = ghost note
tr = trill
==============================================================================

Rocka Rolla
(Tipton/Downing/Halford)

Man eatin momma, steam driven hammer
Sorts the men out from the boys
Takes no messin', all in wrestlin'
Is one of her pride and joys

She a classy, flashy lassy
Imitation sapphire shine
Two faced liar, full of fire
But I know the flame is mine

Rocka rolla woman for a rocka rolla man
You can take her if you want her
If you think you can
Rocka rolla woman for a rocka rolla man
You can take her if you want her you can

She's a grip and choke ya
Heavy smoker
Wrong side of the law

Midnight shady
Good time lady
Heavy, ready show you what for

Barroom fighter
Ten pint a nighter
Definite ninety-nine

Diamond cluster
Knuckle duster
Feline on the borderline

Rocka rolla woman for a rocka rolla man
You can take her if you want her
If you think you can
Rocka rolla woman for a rocka rolla man
You can take her if you want her you can

            
            
Suggest correction
Creating personal tab
Creating personal tab
You can edit any tab online and save it as your Personal.

You can edit, replace or remove any tab part or add personal notes – all changes will be seen only by you.

Personal tabs can be accessed anytime from any device, even offline.
Learn more »
comments
print report bad tab
2 comments total.
0 reply
Guns4tots 70 Nov 29, 2003 07:00 PM

Good job

0 reply
stgrievesy 12 Jun 02, 2017 10:44 PM

I'm pretty sure during the verse that its 0 to 3 on the low e and then to 0 on the a string

guest
Wanna post a correction for this tab? Suggest correction