Oops, an error
Loading. Please wait.

Running Wild Tab

version 1
version 1

Whole song

Interactive

7,500 views 6 this week
no commentswrite comment
1 2 3 4 5
please rate
add to favorites
launch autoscroll
font size
0
reset
how to read this tab
guitar tuner
Autoscroll
slow
fast
+/-
esc
set tempo
stop
Help us to improve Ultimate-Guitar.com Take our survey!
×
Contributor
Binbags 5,672
Band:  Judas Priest
Album: Killing Machine
Song:  Running Wild

Copyright (c)  (CBS) (1978)
Version 1.0 - (18/02/05)


.  - palm mute           /  - slide up to
\  - slide down to       ~  - vibrato
h  - hammer on           b  - Bend
p  - pull off            Suffixes for bend
t  - tap                 f  - full bend    h - half bend
ph - pinched harmonic    q  - quarter bend t - tap bend
*  - see comment         ^  - Hold bend    r release bend
x  - Stuccatto           ~  - vibrato bend
,  - slight palm mute    () - ghost note, sustained note
"  - tremolo note        <> - Trill

Tunning E A D G B E

 Intro
     [---PM---]
E---------------|
B---------------|
G-9-9-----------|
D-9-9-----------|
A-7-7-----------|
E-----0-0-0-0---|Rpt 4 X before drums enter. 
                 Rpt 3 X before verse starts

 Verse
     [--PM---]    [--PM---]   [--PM---]
E-------------------------------------------------|
B-------------------------------------------------|
G-9-9----------5-5---------7-7--------------------|
D-9-9----------5-5---------7-7---------------4-4--|
A-7-7----------3-3-3-3-3-3-5-5-5-5-5-5-5-5---2-2--|
E-----0-0-0-0--------------------------3-3-x------|

     [--PM---]    [--PM---]
E-------------------------------------------|
B-------------------------------------------|
G-9-9----------5-5---------7---5---2---2----|
D-9-9----------5-5---------7---5---2---2----|
A-7-7----------3-3-3-3-3-3-5---3---0---0----|
E-----0-0-0-0-------------------------------|

     [--PM---]    [--PM---]   [--PM---]
E-------------------------------------------------|
B-------------------------------------------------|
G-9-9----------5-5---------7-7--------------------|
D-9-9----------5-5---------7-7---------------4-4--|
A-7-7----------3-3-3-3-3-3-5-5-5-5-5-5-5-5---2-2--|
E-----0-0-0-0--------------------------3-3-x------|

     [--PM---]    [--PM---]
E-----------------------------------|
B-----------------------------------|
G-9-9----------5-5---------7---(7)--|
D-9-9----------5-5---------7---(7)--|
A-7-7----------3-3-3-3-3-3-5---(5)--|
E-----0-0-0-0-----------------------|


 Chorus
[PM][PM] [PM]     
E--------------------------|
B--------------------------|
G--------------------------|
D---5---4---4-5-7----------|
A---5---4---4-5-7----------|
E-0---0---0-------0-3p0----|Rpt 2 X

 Rpt Verse and Chorus

 Backing for solo
[PM][PM] [PM]
E--------------------------|
B--------------------------|
G---2---1---1-2-4----------|
D---2---1---1-2-4----------|
A-------------------0------|
E-2---2---2-------2---2----|Rpt 3 X

 End of solo riff
[PM]
E----------------------|
B----------------------|
G---2------------------|
D---2--4--4--6-6-6-6---|
A------4--2--4-4-4-4---|
E-2----2---------------|

 After solo

   [PM] [PM] h
E---------------|
B---------------|
G------5--------|
D-7----5---4-5--|
A-0--0---0------|
E---------------|Rpt 16 X
 This guitar enters from the 9th time onwards
E-----------------------------------------------------|
B-----------------------------------------------------|
G-----------------------------------------------------|
D-2----(2)-----4----(4)-----5----(5)-----7----(7)-----|
A-0----(0)-----2----(2)-----3----(3)-----5----(5)-----|
E-----------------------------------------------------|Rpt 2 X

                              [--PM---]     [--PM---]
E-----------------------------------------------------|
B-----------------------------------------------------|
G---------------------------9-9---------9-9-----------|
D-9---(9)------9---(9)------9-9---------9-9-----------|
A-7---(7)------7---(7)------7-7---------7-7-----------|
E-0---(0)------0---(0)------0---0-0-0-0-----0-0-0-0---|

 Rpt Verse
 Rpt Chorus to fade.



END
comments
We did not receive enough feedback on this tab! Please rate:
print report bad tab
1 2 3 4 5
I want to post or [tab]
guest
You may want to rate the tab now too:
select rating
Please do not post tabs as comments. Select "correction" instead!