Oops, an error
Loading. Please wait.

Saints In Hell Bass Tab

version 1
version 1

Whole song

Interactive

457 views 3 this week
no commentswrite comment
1 2 3 4 5
please rate
add to favorites
launch autoscroll
font size
0
reset
guitar tuner
Tab Pro tools
  • play this tab
  • loop segment
  • change instrument
  • show fretboard
  • metronome
Autoscroll
slow
fast
+/-
esc
set tempo
stop
Contributor
-----------------------------------------------------------------------------
Judas Priest - Saints in Hell (Stained Class, 1978)
-----------------------------------------------------------------------------

Tabbed By : RestlessAndWild

Tuning: Standard EADG

Main Riff
G|---------------------------------------------------------------|
D|-----------555------------7775------------555-------------7b---|
A|-5777----57---7-5777----57-----5777-----57---7-5777-----57-----|
E|-----0-00-----------0-00-----------0-00------------0-00--------|

Chrous Riff
G|---------------------------------------------------------------|
D|---------------------------------------------------------------|
A|-----------32--------3-5-----------32--------3-5---------------|
E|--5--5--5------5--5-------5--5--5------5--5--------------------|

Breakdown
G|---------------------------------------------------------------|
D|---------------------------------------------------------------|
A|-----7-----7-----7-----7-----7-----7-----7-----7-----7-----7---|
E|---------------------------------------------------------------|

Bridge Riff 1
G|---------------------------------------------------------------|
D|---------------------------------------------------------------|
A|-------------------------55555557------------------------------|
E|0000000000000000000000000--------------------------------------|

Bridge Riff 2
G|---------------------------------------------------------------|
D|---------------------------------------------------------------|
A|--------------------------------------------5555555------------|
E|-5-----7-----0000000000000000000000000000000-------5-----7-----|

Guitar plays Main Riff twice before bass enters
Main Riff x4
Chorus Riff x1
Main Riff x4
Chorus Riff x1
5 on the A string bridges between second chorus and the breakdown; Drums play for a bit 
before guitar/bass enter
Breakdown
Bridge Riff 1 x6
Bridge Riff 2 x1
Keep playing Main Riff until the song fades out
And that's the song.

| /  Slide up
| \  Slide down
| h  Hammer-on
| p  Pull-off
| ~  Vibrato
| +  Harmonic
| x  Mute note
| b  Bend note
=============================================================================
comments
We did not receive enough feedback on this tab! Please rate:
print report bad tab
1 2 3 4 5
I want to post or [tab]
guest
You may want to rate the tab now too:
select rating
Please do not post tabs as comments. Select "correction" instead!