Oops, an error
Loading. Please wait.

Screaming For Vengeance Tab

version 1
version 1

Solo

Whole song

Interactive

1,352 views 1 this week
no commentswrite comment
1 2 3 4 5
please rate
add to favorites
launch autoscroll
font size
0
reset
how to read this tab
guitar tuner
Autoscroll
slow
fast
+/-
esc
set tempo
stop
Help us to improve Ultimate-Guitar.com Take our survey!
×
Difficulty
intermediate
Transcribed by: July Rocker
Judas Priest - Screaming For Vengeance
Copyright 1982 CBS RECORDS
Version 1.0 - (August - 2011)

Tempo - 220
p.o - pull off
~~~ - vibrato
|--3--| - 3 notes per time
ph - pinch harmonic
.. - palm mute
''' - sutained note
Tunning - Standard

Solo 1 only

KK Solo
 |---3---| |---3---||---3---||---3---| |---3---||---3---||---3---||---3---|
 |  p.o  | |  p.o  ||  p.o  ||  p.o  | |  p.o  ||  p.o  ||  p.o  ||  p.o  |
  ph       ph       ph       ph         ph       ph       ph       ph
|-------------------------------------|------------------------------------|
|-------------------------------------|------------------------------------|
|-19-17-15-19-17-15-19-17-15-19-17-15-|-19-17-15-19-17-15-19-17-15-19-17-15|
|-------------------------------------|------------------------------------|
|-------------------------------------|------------------------------------|
|-------------------------------------|------------------------------------|


 |---3--| |--3--| |--3--| |--3--|  |--3--|--3--|--3--|--3--|
 |p.o   | |p.o  | |p.o  | |p.o  |  |p.o  |p.o  |p.o  |p.o  |
|----------------------------------------------------------|
|----------------------------------------------------------|
|17-15-0-15-14-0-14-12-0-12-11-0-|-11-9-0-9-7-0-7-5-0-5-3-0|
|----------------------------------------------------------|
|----------------------------------------------------------|
|----------------------------------------------------------|


                          In this 3 last beats do pinch
                          harmonics in the arm
                          of the guitar till you be in 6
                          or 7 fret and do the 2 last notes
 |--3--|--3--|--3--|--3--||--3--|--3--|--3--|--3--|--3--|--3--|--3--|--3--|
 |p.o  |p.o  |p.o  |p.o  ||p.o  |p.o  |p.o  |p.o  |p.o  |p.o  |p.o  |p.o  |
                           ph    ph    ph    ph    ph    ph    ph    ph
|------------------------|------------------------|-----------------------|
|------------------------|------------------------|-----------------------|
|4-2-0-4-2-0-4-2-0-4-2-0-|-4-2-0-4-2-0-4-2-0-4-2-0|4-2-0-4-2-0-4-2-0-4-2-0|
|------------------------|------------------------|-----------------------|
|------------------------|------------------------|-----------------------|
|------------------------|------------------------|-----------------------|


|--3--|--3--|
|p.o  |p.o  |
|------------------------|
|------------------------|
|4-2-0-4-2-0-0-----4~~~~~|
|------------------------|
|------------------------|
|------------------------|


Backing for the Solo
|--------------------------------|
|--------------------------------|
|--------------------------------|
|--------------------------------|
|7-----7'''----7-----7'''5'''5'''|
|5-5-5-5'''5-5-5-5-5-5'''3'''3'''|
   . .     . .   . .
Suggest correction
Give kudos to tab author, rate the tab!
1 2 3 4 5
comments
print report bad tab
guest
You may want to rate the tab now too:
select rating
Please do not post tabs as comments. Select "correction" instead!