Oops, an error
Loading. Please wait.

Shadows In The Flame Tab

version 1
version 1

Whole song

Interactive

2,302 views 3 this week
3 commentsread comments
1 2 3 4 5
worth learning
x 4
add to favorites
launch autoscroll
font size
0
reset
how to read this tab
guitar tuner
Autoscroll
slow
fast
+/-
esc
set tempo
stop
Help us to improve Ultimate-Guitar.com Take our survey!
×
Difficulty
novice
-----------------------------------------------------------|
-----------------------------------------------------------|
-----------------------------------------------------------|
------5------5----------8-----8---------3-----3------------|
----5------5-----3----8-----8-----8---3-----3-----3--------|
--3-----3------5----6-----6-----6---1-----1-----1----------|

-----------------------------------------------------------|
-----------------------------------------------------------|
-----------------------------------------------------------|
------5-----5----------------------------------------------|
--3-5---3-5-----5------------------------------------------|
--------------1--------------------------------------------|

That's it! the same lick throughout the whole song... 100% accurate
Suggest correction
comments
print report bad tab
3 comments total.
0 reply
sagyas 30 wrote on March 28 2010, 06:02 am

thx dude !

0 reply
wogen 10 wrote on February 7 2013, 08:11 am

You gotta be deaf to say it's 100% accurate.


---------------------------------------------------------------------------------|
---------------------------------------------------------------------------------|
--------3-----3---------------3--------3---------------0----------------------0--|
-----3-----3-------0------3--------3---------3-----------------3-----------0-----|
-----------------0-----1--------1---------1---------3-------3-------3---3--------|
--0-----0----------------------------------------1--------1-------1--------------|


This this is at least 80% accurate. I didn't tab out the last part because I really don't hear it that well maybe someone else will figure it out.

0 reply
wogen 10 wrote on May 14 2013, 05:23 am


------------------
------------------
------0-------0---
----0-------0-----
------------------
--3------3--------

I made a mistake at the beggining sorry, this is the correct version.

guest
You may want to rate the tab now too:
select rating
Please do not post tabs as comments. Select "correction" instead!