Oops, an error
Loading. Please wait.

Some Heads Are Gonna Roll Bass Tab

version 1
version 1

Whole song

Interactive

1,519 views 1 this week
no commentswrite comment
1 2 3 4 5
please rate
add to favorites
launch autoscroll
font size
0
reset
guitar tuner
Autoscroll
slow
fast
+/-
esc
set tempo
stop
Help us to improve Ultimate-Guitar.com Take our survey!
×
Author
Song: Some Heads Are Gonna Roll
Band: Judas Priest
Album: Defenders Of The Faith
Tabbed by: Rich Kennedy (outpatient@ptd.net)

Tuning: Standard 440


Intro

(Enter at 0:07)

G:|--------------------------------|
D:|--------------------------------|
A:|--2-3---------------------------|
E:|--------------------------------|


G:|--------------------------------|--------------------------------|
D:|----5-4-2-----------------------|----5-4-2-----------------------|
A:|3-5-----------------------------|3-5-----------------------------|
E:|----------0-0-0-0-0-0-0-0-0-0-0-|----------0-0-0-0-0-0-0-0-0-0-0-|


Verse 1

       You can look to the left and look to the right, but you will live in danger tonite.

G:|----------------------------------------------------------------------------------------------|
D:|----5-4-2-------------------------------------------------------------------------------------|
A:|3-5------------------------------------------------------------------0-2-3-3-3-3-3-3-3-3-3-3-3|
E:|---------0-0-0-0-0-0-0-0-0-0-0-0-0-0-0-0-0-0-0-0-0-0-0-0-0-0-0-0-0-0--------------------------|

When the enemy comes he will never be heard, he'll blow your mind and not say a word.

G:|----------------------------------------------------------------------------------|
D:|----------------------------------------------------------------------------------|
A:|----------------------------------------------------------0-2-3-3-3-3-3-3-3-3-3-3-|
E:|0-0-0-0-0-0-0-0-0-0-0-0-0-0-0-0-0-0-0-0-0-0-0-0-0-0-0-0-0-------------------------|


Pre-Chorus 1

           Blinding lights,                   flashing colors,            Sleepless nights.

G:|----------------------------------------------------------------------------------------------|
D:|----------------------------------------------------------------------------------------------|
A:|2-2-2-2-2-2-2-2-2-2-2-2-2-2-2-2-5--2-2-2-2-2-2-2-2-2-2-2-3--5--0-2-2-2-2-2-2-2-2-2-2-2-2-2-2-2|
E:|----------------------------------------------------------------------------------------------|

   If the man     with the power      can't keep it under control

G:|-----------------------------------------------------------8-----------|
D:|-------------------------------------------------------------9---7-----|
A:|0-2-3-3-3-3-3-3-3-3-3-3-4-4-4-4-4-4-4-4-5-5-5-5-5-5-5-5-6------9---10/-|
E:|-----------------------------------------------------------------------|


Chorus 1

   Some heads are gonna roll                 Some heads are gonna roll

G:|------------------------------------------------------------------------------------------|
D:|------------------------------------------------------------------------------------------|
A:|--------------------------------------------------------------------0-2-3-3-3-3-3-5-5-5-5-|
E:|0-0-0-0-0-0-0-0-0-0-0-0-0-0-0-0-0-0-0-0-0-0-0-0-0-0-0-0-0-0-0-0-0-0-----------------------|

   Some heads are gonna roll                 Some heads are gonna roll                   The

G:|-----------------------------------------------------------------------------------------|
D:|-----------------------------------------------------------------------------------------|
A:|--------------------------------------------------------------------0-2-3-(3)-(3)-(3)-(3)|
E:|0-0-0-0-0-0-0-0-0-0-0-0-0-0-0-0-0-0-0-0-0-0-0-0-0-0-0-0-0-0-0-0-0-0----------------------|


Verse 2

   power-mad freaks who are ruling the earth, Will show how little they think you're worth.

G:|----------------------------------------------------------------------------------------------|
D:|----------------------------------------------------------------------------------------------|
A:|------------------------------------------------------------0-2-3-3-3-3-3-3-3-3-3-3-3-3-3-3-3-|
E:|0-0-0-0-0-0-0-0-0-0-0-0-0-0-0-0-0-0-0-0-0-0-0-0-0-0-0-0-0-0-----------------------------------|

With animal lust they'll devour your life, and slice your world to bits like a knife.

G:|--------------------------------------------------------------------------------------|
D:|--------------------------------------------------------------------------------------|
A:|----------------------------------------------------------0-2-3-3-3-3-3-3-3-3-3-3-3-3-|
E:|0-0-0-0-0-0-0-0-0-0-0-0-0-0-0-0-0-0-0-0-0-0-0-0-0-0-0-0-0-----------------------------|


Pre-Chorus 2

           One last day,                   burning hell fire,             You're blown away.

G:|----------------------------------------------------------------------------------------------|
D:|----------------------------------------------------------------------------------------------|
A:|2-2-2-2-2-2-2-2-2-2-2-2-2-2-2-5--2-2-2-2-2-2-2-2-2-2-2-2-3--5--0-2-2-2-2-2-2-2-2-2-2-2-2-2-2-2|
E:|----------------------------------------------------------------------------------------------|

   If the man     with the power      can't keep it under control

G:|-----------------------------------------------------------8-----------|
D:|-------------------------------------------------------------9---7-----|
A:|0-2-3-3-3-3-3-3-3-3-3-3-4-4-4-4-4-4-4-4-5-5-5-5-5-5-5-5-6------9---10/-|
E:|-----------------------------------------------------------------------|


Chorus 2

   Some heads are gonna roll                 Some heads are gonna roll

G:|------------------------------------------------------------------------------------------|
D:|------------------------------------------------------------------------------------------|
A:|--------------------------------------------------------------------0-2-3-3-3-3-3-5-5-5-5-|
E:|0-0-0-0-0-0-0-0-0-0-0-0-0-0-0-0-0-0-0-0-0-0-0-0-0-0-0-0-0-0-0-0-0-0-----------------------|

   Some heads are gonna roll                 Some heads are gonna roll

G:|--------------------------------------------------------------------------------------------|
D:|--------------------------------------------------------------------------------------------|
A:|--------------------------------------------------------------------0-2-3-(3)-(3)-(3)-(3)-5-|
E:|0-0-0-0-0-0-0-0-0-0-0-0-0-0-0-0-0-0-0-0-0-0-0-0-0-0-0-0-0-0-0-0-0-0-------------------------|


Bridge

       Know what it's like                 when you're taken for granted           There

G:|---------------------------------------------------------------------------------------|
D:|---------------------------------------------------------------------------------------|
A:|3-3-3-3-3-3-3-3-3-3-3-3-3-3-3-3-3-3---------------------------------------2--3-3-3-3-3-|
E:|------------------------------------0-0-0-0-0-0-0-0-0-0-0-0-0-0-0-0-0-0-0--------------|

   goes your life              It's so under handed

G:|---------------------------------------------------------|
D:|---------------------------------------------------------|
A:|3-3-3-3-3-3-3-3-3-3-3-3-3-2--(2)-3--(3)--4-(4)-5--7-7-7/-|
E:|---------------------------------------------------------|


Guitar Solo


G:|------------------------------------------------------------------------------------------|
D:|------------------------------------------------------------------------------------------|
A:|--------------------------------------------------------------------0-2-3-3-3-3-3-5-5-5-5-|
E:|0-0-0-0-0-0-0-0-0-0-0-0-0-0-0-0-0-0-0-0-0-0-0-0-0-0-0-0-0-0-0-0-0-0-----------------------|




G:|------------------------------------------------------------------------------------------|
D:|------------------------------------------------------------------------------------------|
A:|--------------------------------------------------------------------0-2-3-3-3-3-3-5-5-5-5-|
E:|0-0-0-0-0-0-0-0-0-0-0-0-0-0-0-0-0-0-0-0-0-0-0-0-0-0-0-0-0-0-0-0-0-0-----------------------|




G:|------------------------------------------------------------------------------------------|
D:|------------------------------------------------------------------------------------------|
A:|--------------------------------------------------------------------0-2-3-3-3-3-3-5-5-5-5-|
E:|0-0-0-0-0-0-0-0-0-0-0-0-0-0-0-0-0-0-0-0-0-0-0-0-0-0-0-0-0-0-0-0-0-0-----------------------|


                                                                                       If the

G:|------------------------------------------------------------------------------------------|
D:|------------------------------------------------------------------------------------------|
A:|--------------------------------------------------------------------0-2-3-3-3-3-3-5-0-2-3-|
E:|0-0-0-0-0-0-0-0-0-0-0-0-0-0-0-0-0-0-0-0-0-0-0-0-0-0-0-0-0-0-0-0-0-0-----------------------|


Pre-Chorus 3

   man  with the power      can't keep it under control

G:|-------------------------------------------------8-----------|
D:|---------------------------------------------------9---7-----|
A:|3-3-3-3-3-3-3-4-4-4-4-4-4-4-4-5-5-5-5-5-5-5-5-6------9---10/-|
E:|-------------------------------------------------------------|


Chorus 3

   Some heads are gonna roll                 Some heads are gonna roll

G:|----------------------------------------------------------------------------------------|
D:|----------------------------------------------------------------------------------------|
A:|--------------------------------------------------------------------0-2-3-3-3-3-5-5-5-5-|
E:|0-0-0-0-0-0-0-0-0-0-0-0-0-0-0-0-0-0-0-0-0-0-0-0-0-0-0-0-0-0-0-0-0-0---------------------|

   Some heads are gonna roll                 Some heads are gonna roll                 Some

G:|----------------------------------------------------------------------------------------|
D:|----------------------------------------------------------------------------------------|
A:|--------------------------------------------------------------------0-2-3-3-3-3-5-5-5-5-|
E:|0-0-0-0-0-0-0-0-0-0-0-0-0-0-0-0-0-0-0-0-0-0-0-0-0-0-0-0-0-0-0-0-0-0---------------------|

   heads are gonna roll

G:|--------------------------------|
D:|--------------------------------|
A:|7-------------------------------|
E:|--------------------------------|


Outro

                   No,   No                         No,   No

G:|--------------------------------|--------------------------------|
D:|----5-4-2-----------------------|----5-4-2-----------------------|
A:|3-5-----------------------------|3-5-----------------------------|
E:|----------0-0-0-0-0-0-0-0-0-0-0-|----------0-0-0-0-0-0-0-0-0-0-0-|

                   No,   No                         No,                Some

G:|--------------------------------|---------------------------4---2-----|
D:|----5-4-2-----------------------|----5-4-2-------------1--1---4-------|
A:|3-5-----------------------------|3-5------------------------------5/--|
E:|----------0-0-0-0-0-0-0-0-0-0-0-|----------0-0-0-0-0-0----------------|

   heads are gonna roll                                  No,   No

G:|-------------------------------------|--------------------------------|
D:|-------------------------------------|----5-4-2-----------------------|
A:|-------------------------------------|3-5-----------------------------|
E:|0-0-0-0-0-0-0-0-0-0-0-0-0-0-0-0-0-0-0|----------0-0-0-0-0-0-0-0-0-0-0-|

         Some heads are gonna roll                       No,                Some

G:|-------------------------------------|---------------------------4---2-----|
D:|----5-4-2----------------------------|----5-4-2-------------1--1---4-------|
A:|3-5----------------------------------|3-5------------------------------5/--|
E:|----------0-0-0-0-0-0-0-0-0-0-0-0-0-0|----------0-0-0-0-0-0----------------|

   heads are gonna roll                                  No,   No

G:|-------------------------------------|--------------------------------|
D:|-------------------------------------|----5-4-2-----------------------|
A:|-------------------------------------|3-5-----------------------------|
E:|0-0-0-0-0-0-0-0-0-0-0-0-0-0-0-0-0-0-0|----------0-0-0-0-0-0-0-0-0-0-0-|

                   No,   No                         No,   No

G:|--------------------------------|--------------------------------|
D:|----5-4-2-----------------------|----5-4-2-----------------------|
A:|3-5-----------------------------|3-5-----------------------------|
E:|----------0-0-0-0-0-0-0-0-0-0-0-|----------0-0-0-0-0-0-0-0-0-0-0-|



Judas Priest at their finest.



Questions? Comments? Corrections? outpatient@ptd.net
Suggest correction
Give kudos to tab author, rate the tab!
1 2 3 4 5
comments
print report bad tab
guest
You may want to rate the tab now too:
select rating
Wanna post a correction for this tab? Suggest correction