Oops, an error
Loading. Please wait.

Some Heads Are Gonna Roll Tab

version 2
version 2

Whole song

Interactive

13,854 views 6 this week
5 commentsread comments
1 2 3 4 5
x 11
add to favorites
launch autoscroll
font size
0
reset
how to read this tab
guitar tuner
Autoscroll
slow
fast
+/-
esc
set tempo
stop
Help us to improve Ultimate-Guitar.com Take our survey!
×
----------------------------------------------------------------------------
                         Some Heads Are Gonna Roll - Judas Priest
-------------------------------------------------------------------------------
Tabbed by: Griff
Email: griff-six-string@lycos.com

Tuning: E 440
INTRO & VERSE RIFF
e|----------------2----------------------------------------------------------|
B|-3---3--------3-----3------------------------------------------------------|
G|-2---2---4-5------2---2-0--------------------------------------------------|
D|-0---0---4-5---------------4-0-2-------9-----10v---------------------9-----|
A|-0---0---2-3---------------------------7------7v--------10-9-7-------7-----|
E|---------------------------------x-x-x-x---x-x-------8-10--------x-x-x--x-x|

e|--------------------7---8-----12---15-17b&v--------------------------------|
B|-------------------10b--11b---15b------------------------------------------|
G|---------------------------------------------------------------------------|
D|-10v----------------------------------------------9-------10-------9-------|
A|--7v-------10-9-7---------------------------------7--------7-------7-------|
E|------8-10----------------------------------x-x-x---x-x-x----x-x-x----x-x--|
PRE-CHORUS
e|----0------3--|-----------------------------------------------------------------|
B|----0------3--|-----------3-----------------------------------------------------|
G|----9------0--|--4--------2--4-----4/5--7--2--4---------------------------------|
D|10--9------2--|--4--------0--4-----4/5--7--2--4---------2--2--4--4--------------|
A|-7--7--0-2-3--|--2-2-2-2 ----2-2-2-2/3--5--0--2-2-2-0-2-3--4--5--6-\-2-3--------|
E|----0---------|---- (listen to song for timing)--------------------------3-5-2--|
CHORUS
e|---------------------------------------------3--3----3--2--|-3-2-0----------|
B|---------------------------------------------3--3----3--3--|-------3--------|
G|-9-------9-------7-----9-------9-------9-----0--0----0--2--|---------2-0----|
D|-9-------9-------7-----9-------9-------9-----2--2----2--0--|-------------4--|
A|-7-------7-------5-----7-------7-------7-0-2-3--3----3--0--|----------------|
E|---x-x-x---x-x-x---x-x-------x---x-x-x---------------------|--second time---|
PRE SOLO RIFF                                  
e|--------------0---------------------|--------------------------------------|
B|--------------0---------------------|--------------------------------------|
G|--5-----------9---4-5-------4-------|--------SOLO RIFF---------------------|
D|--5---------2/9---4-5-------4-2-2-4-|----------SAME AS---------------------|
A|--3-3-3-3-3-2/7---2-3-3-3-3-2-3-4-5-|-------------CHORUS RIFF--------------|
E|------------0-0---------------------|--------------------------------------|

e|---------------------------------------------------------------------------|
B|---------------------------------------------------------------------------|
G|-------------I HAVEN"T FINISHED TRANSCRIBING THE SOLO----------------------|
D|---------------------------------------------------------------------------|
A|------------------------SORRY----------------------------------------------|
E|---------------------------------------------------------------------------|
Suggest correction
comments
print report bad tab
5 comments total. Showing first comments.
0 reply
ibanezwayne 10 Jul 15, 2006 06:05 PM

dude what the hell is that!not even close

0 reply
XB0XDEM0N 15 May 28, 2009 10:19 PM

this sounds nothing like it!!!

0 reply
fadetoblack84 20 Aug 08, 2009 08:20 PM

Hey, i have part of the solo tabbed if you want it

guest
You may want to rate the tab now too:
select rating
Wanna post a correction for this tab? Suggest correction