Oops, an error
Loading. Please wait.

Starbreaker Tab

version 2
version 2

Whole song

Interactive

1,961 views 3 this week
no commentswrite comment
1 2 3 4 5
1 last vote to show rating
add to favorites
launch autoscroll
font size
0
reset
how to read this tab
guitar tuner
Autoscroll
slow
fast
+/-
esc
set tempo
stop
Help us to improve Ultimate-Guitar.com Take our survey!
×
Guitar Legend:
| |= palm mute
/ \= slide up or down
~~= vibrato
h= hammer-on
p= pull-off
16^= full bend
16^(16)= full bend, then bring string back to original postion
tr= trill (multiple hammer-ons and pull-offs)


PLEASE NOTE: The spacing is NOT EQUAL to the timing.
Listen to the song for the correct timing.


Riff 1:
----------------------------------------------------|
----------------------------------------------------|
-------------------------------------- 4------------|
-----4------------------------------ 2-4------------|
-----4-|4-4-4-4-4-4-4-4-4-4-4-4|-----2-2------------|
-5-4-2-|2-2-2-2-2-2-2-2-2-2-2-2|-5-4-0--------------|

----------------------------------------------------|
----------------------------------------------------|
-------------------------------------- 6------------|
-----4------------------------------ 2-6------------|
-----4-|4-4-4-4-4-4-4-4-4-4-4-4|-----2-4------------|
-5-4-2-|2-2-2-2-2-2-2-2-2-2-2-2|-5-4-0--------------|


Riff 2:
---------------------------------------------------|
---------------------------------------------------|
---------------------------------9-9/11-11-11~~----|
-9/11-11-11-11--6-9-9/11-11-11~~-7-7/-9--9--9~~----|
-7/-9--9--9--9--4-7-7/-9--9--9~~-------------------|
---------------------------------------------------|


Riff 3:
---------------------------------------------------|
---------------------------------------------------|
--6------------------------------------------------|
--6----2--6-6-6-6--6-6-6-6----2--6-----------------|
--4----2--6-6-6-6--6-6-6-6----2--6-----------------|
-------0--4-4-4-4--4-4-4-4----0--4-----------------|


Riff 4:
---------------------------------------------------|
---------------------------------------------------|
-----------------------------------5/7-------------|
-2-----------------------------7~~-----7----7\-----|
-0-|0-0-0-0-0-0-0-0-0-0-0-0|-5------------5--------|
---------------------------------------------------|


Riff 5:
---------------------------------------------------|
---------------------------------------------------|
---------------------------------------------------|
-2-------------------------- 2---------------------|
-0-|0-0-0-0-0-0-0-0-0-0-0-0|-2----2----------------|
---------------------------- 0--0---0-3~~----------|


Riff 6:
-------------------------------------------------------------------|
-------------------------------------------------------------------|
-----------------------------------6/8-------------7--------9-9\---|
-2-----------------------------8~~-----8----8----7---7----9--------|
-0-|0-0-0-0-0-0-0-0-0-0-0-0|-6------------6----5--------7----------|
-------------------------------------------------------------------|


Solo:
---------------- 9-------11-----------------------------------------|
-12tr9\-/12^-12^---9-14^----14^-14^~~-------------------------------|
-------------------------------------16^-16^-16^(16)p14h16p14----14-|
------------------------------------------------------------- 16----|
--------------------------------------------------------------------|
--------------------------------------------------------------------|

----------------------------------------------17-20^-21-21-19-19-16-|
-------------------------------------------17-----------------------|
---------------------------------------/19--------------------------|
-16p14h16p14-------------------14-16~~------------------------------|
-------------16-16-14-14-15-16--------------------------------------|
--------------------------------------------------------------------|

-----19-16--------------------------14-17-----14-17----------------|
-19^-------19-17^-17-17^-17-17^-17^-------17^-------19-19-17-17-14-|
-------------------------------------------------------------------|
-------------------------------------------------------------------|
-------------------------------------------------------------------|
-------------------------------------------------------------------|

------------------------------------------------------------------|
-10-14/16-14-16/17-19-17-----14-14-17p14-----14-14-17p14----------|
-------------------------16^-------------16^----------------------|
------------------------------------------------------------------|
------------------------------------------------------------------|
------------------------------------------------------------------|

------------------------------------------------------------------|
-----14-14-17p14-14-14-17p14-14-14-----14-17p14-------------------|
-16^-------------------------------16^----------16\---------------|
------------------------------------------------------------------|
------------------------------------------------------------------|
------------------------------------------------------------------|
Suggest correction
Give kudos to tab author, rate the tab!
1 2 3 4 5
comments
print report bad tab
guest
You may want to rate the tab now too:
select rating
Wanna post a correction for this tab? Suggest correction