Oops, an error
Loading. Please wait.

Steeler Bass Tab

version 1
version 1

Whole song

Interactive

1,395 views 6 this week
1 commentread comment
1 2 3 4 5
excellent!
x 3
add to favorites
launch autoscroll
font size
0
reset
guitar tuner
Autoscroll
slow
fast
+/-
esc
set tempo
stop
Help us to improve Ultimate-Guitar.com Take our survey!
×
Intro/ Verse:

G|--------------------------|
D|--------------------------|
A|-77777777777777777777777--|
E|--------------------------|

Chorus 1:

G|-----------------------|
D|-0-----0-----0------0-2|
A|--22222-22222-22222----|
E|-----------------------|

Chorus 2:

G|-----------------------|
D|-0-----0-----0------0-2|
A|--22222-22222-22222----|
E|-----------------------|

G|-----------------------------|
D|---------------------------4-|
A|-7-44444-7-44444-7-44444-7---|
E|-----------------------------|

Part after the second chorus
( interlude, bridge, whatever):

G|-----------------|
D|-----------------|
A|-----------------|
E|-777-777-777-777-|

G|--------------------------------------------|
D|--------------------------------------------|
A|-----------------5--------------------------|
E|-777-777-777-777-------5----777-777-777-777-|

G|------------------------------------------|
D|-----------------5------------------------|
A|-777-777-777-777------5----777-777-777-777|
E|------------------------------------------|

After third chorus until the end
during that last guitar solo:

G|---------------------------------------------|
D|---------------------------------------------|
A|-777-777-777-777-777-777-777-777-777-777-777-|
E|---------------------------------------------|

Then as a final note play (let it ring out):

G|-----|
D|-0---|
A|-----|
E|-----|


Thats every part to the song. Listen to the song for timing
and all that stuff. Also, in the part after the second chorus
i couldn't really hear the bass very well so it could possibly
be wrong... but wutever... it works. ENJOY.
Suggest correction
Give kudos to tab author, rate the tab!
1 2 3 4 5
comments
print report bad tab
1 comment total.
0 reply
akarith 93 wrote on August 12 2012, 01:18 am

Good tab 5/5
the fill after the second chorus:
Come in when the drums do


G|----------------------------|
D|----------------------------|
A|2----2----2-----2-----------|
E|-0-0--0-0---0-0--0-0-2-0-0-0|

guest
You may want to rate the tab now too:
select rating
Wanna post a correction for this tab? Suggest correction