Oops, an error
Loading. Please wait.

The Beginning Of The End Chords

94 views 12 this week
no commentswrite comment
1 2 3 4 5
3 more votes to show rating
add to favorites
launch autoscroll
font size
0
reset
transpose
0
reset
display chords
guitar tuner
Autoscroll
slow
fast
+/-
esc
set tempo
stop
Help us to improve Ultimate-Guitar.com Take our survey!
×
Author
Difficulty
novice
About this tab version
1st version for this song, based of the album version. Was this info helpful? Yes No
Tab / Chords for Judas Priest's Beginning of the End
Tab and chords based of album recording completely by ear (apologies for any mistakes)
Not certain about chords in the bridge.

Tab at beginning and during chorus's:
e|---------------------------------|---------------------------------|
B|---------------------------------|---------------------------------|
G|--------7--9---------------------|--------7--9---------------------|
D|----7/9-------7---7--5--7--5--2--|----7/9-------7---7--5--7/9------|
A|---------------------------------|---------------------------------|
E|-0------------5------------------|-0------------5------------------|

e|---------------------------------|---------------------------------|
B|---------------------------------|---------------------------------|
G|--------7--9---------------------|--------7--9---------------------|
D|----7/9-------7---7--5--7--5--2--|----7/9-------7------4-----------|
A|---------------------------------|---------------------------------|
E|-0------------5------------------|-0------------5------2-----------|

e|---------------------------------|---------------------------------|
B|---------------------------------|---------------------------------|
G|--------7--9---------------------|--------7--9---------------------|
D|----7/9-------7---7--5--7--5--2--|----7/9-------7---7--5--7/9------|
A|---------------------------------|---------------------------------|
E|-0------------5------------------|-0------------5------------------|

e|---------------------------------|---------------------------------|
B|---------------------------------|---------------------------------|
G|--------7--9---------------------|-------4---------------3---------|
D|----7/9-------7--7--5--7--9--7-5-|-----5---5-----------4---4-------|
A|---------------------------------|---5-------5---5---4-------4---3-|
E|-0------------5------------------|-3-----------3---2-----------1---|

[Verse 1]
Em
The time has come
         C              Am
And as I reach up to the sky
    D               Em
The love will never die

Em
At last it's here
            C             Am
The darkest sky begins to clear
    D                G
The final hour draws near

[Pre-Chorus]
G       Am         Em           D
But the voices are calling me
C           Am           Em     B
Erasing the pain and the fear

[Chorus]
Em        Am
So lay me down
Em        Am
Lay me to rest
Em        Am
It's over now 'cause I know
         C      B  Bb     Em
It's the beginning of the end

[Verse 2]
Em
And so we'll rise
       C            Am
By the grace of God alone
    D                   Em
His words are carved in stone

Em
I'm never gone
            C              Am
I'll always be within your heart
D                   G
Waiting's the worst part

[Pre-Chorus]
G       Am         Em          D
Now the voices are calling me, Soothing me and 
C           Am           Em     B
easing the pain and the fear

[Chorus]
Em        Am
So lay me down
Em        Am
Lay me to rest
Em        Am
It's over now 'cause I know
         C      B  Bb     Em
It's the beginning of the end

[Interlude 1]
Em B C Am x4

[Bridge]
Am           C                 Am
And I see my life pass quickly by
     C
I am watching
Am                 C                  Dm
All these years we thought we were so wise
          B
They mean nothing

Am         C              Am        C
Walk alone into the dying mist come alive for ever
Am                   C            Dm
See the things we've never seen before
        B
Hand in hand together

[Interlude 2]
Am F Am Dm x2

[Verse 3]
Em
The falling rays
        C                 Am
are lighting up the open door
    D                G
We've all been waiting for

[Pre Chorus]
G       Am         Em          D
So the voices are calling me
C           Am           Em     B
Showing the path that is clear

[Chorus]
Em        Am
So lay me down
Em        Am
Lay me to rest
Em        Am
It's over now 'cause I know
         C      B
It's the beginning
Em        Am
So lay me down
Em        Am
Lay me to rest
Em        Am
It's over now 'cause I know
         C      B  Bb     Em
It's the beginning of the end
Suggest correction
Give kudos to tab author, rate the tab!
1 2 3 4 5
comments
print report bad tab
guest
You may want to rate the tab now too:
select rating
Wanna post a correction for this tab? Suggest correction