Oops, an error
Loading. Please wait.

The Green Manalishi Bass Tab

version 1
version 1

Live

Whole song

1,183 views 1 this week
2 commentsread comments
1 2 3 4 5
2 more votes to show rating
add to favorites
launch autoscroll
font size
0
reset
guitar tuner
×
Best way to learn
"The Green Manalishi"
Autoscroll
slow
fast
+/-
esc
set tempo
stop
Author
Difficulty
-------------------------------------------------------------------------------
                             THE GREEN MANALISHI (live) - Judas Priest
-------------------------------------------------------------------------------

Tabbed By : Isaias Garcia (TexasFury)

Album: Unleashed In The East

Tuning: Standard


     Intro
    E  E  E  E  E  E  E  E     E  E  E  E  E  E  E  E     E  E  E  E  E  E  E  E
G|--------------------------|--------------------------|--------------------------|
D|--------------------------|--------------------------|--------------------------|
A|--------------------------|--------------------------|--5--3--3--3--3--3--3--3--|
E|--0--0--0--0--0--0--0--0--|--0--0--0--0--0--0--0--0--|--------------------------|


    E  E  E  E  E  E  E  E     E  E  E  E  E  E  E  E     E  E  E  E  E  E  E  E
G|--------------------------|--------------------------|--------------------------|
D|--------------------------|--------------------------|--------------------------|
A|-----2--3--3--3--5--5--7--|--------------------------|--------------------------|
E|--------------------------|--0--0--0--0--0--0--0--0--|--0--0--0--0--0--0--0--0--|


                                                          Verse 1
    E  E  E  E  E  E  E  E     E  E  E  E  E  E  E  E     E  E  E  E  E  E  E  E
G|--------------------------|--------------------------|--------------------------|
D|--------------------------|--------------------------|--------------------------|
A|--5--3--3--3--3--3--3--3--|-----2--3--3--3--5--5--7--|--------------------------|
E|--------------------------|--------------------------|--0--0--0--0--0--0--0--0--|


    E  E  E  E  E  E  E  E     E  E  E  E  E  E  E  E     E  E  E  E  E  E  E  E
G|--------------------------|--------------------------|--------------------------|
D|--------------------------|--------------------------|--------------------------|
A|--------------------------|--------------------------|--------------------------|
E|--0--0--0--0--0--0--0--0--|--0--0--0--0--0--0--0--0--|--0--0--0--0--0--0--0--0--|


    E  E  E  E  E  E  E  E     E  E  E  E  E  E  E  E     E  E  E  E  E  E  E  E
G|--------------------------|--------------------------|--------------------------|
D|--------------------------|--------------------------|--------------------------|
A|--------------------------|--------------------------|--------------------------|
E|--0--0--0--0--0--0--0--0--|--0--0--0--0--0--0--0--0--|--0--0--0--0--3--5-----3--|


    E  E  E  E  E  E  E  E     E  E  E  E  E  E  E  E     E  E  E  E  E  E  E  E
G|--------------------------|--------------------------|--------------------------|
D|--------------------------|--------------------------|--------------------------|
A|--------------------------|--------------------------|--------------------------|
E|-----5-----3--L--0--0--0--|--0--0--0--0--0--0--0--0--|--0--0--0--0--0--0--0--0--|


    E  E  E  E  E  E  E  E     E  E  E  E  E  E  E  E     E  E  E  E  E  E  E  E
G|--------------------------|--------------------------|--------------------------|
D|--------------------------|--------------------------|--------------------------|
A|--------------------------|--------------------------|--------------------------|
E|--0--0--0--0--3--5-----3--|-----5-----3--L--0--0--0--|--3--3--3--3--3--3--3--3--|


                                                     Interlude 1
    E  E  E  E  E  E  E  E     Q    Q    H           E  E  Q    Q    E   E     E  E  Q     H
G|--------------------------|---------------------|-------------------------|-----------------------|
D|--------------------------|---------------------|-------------------------|-----------------------|
A|--------------------------|--7------------------|--7--5--7------------10--|-----9--7\----5--------|
E|--5--5--5--5--5--5--5--5--|---------------------|-------------------------|-----------------------|


    E  E  Q    Q    E  E     E  E  Q    H           E  E  Q    Q    E   E     E  E  Q     H
G|------------------------|----------------------|-------------------------|-----------------------|
D|------------------------|----------------------|-------------------------|-----------------------|
A|------------------------|----------------------|--7--5--7------------10--|-----9--7\----5--------|
E|--0--2--3------------3--|-----2--3----5--------|-------------------------|-----------------------|


                                                    Verse 2
    E  E  Q    Q    E  E     E  E  Q    H           E  E  E  E  E  E  E  E
G|------------------------|----------------------|--------------------------|
D|------------------------|----------------------|--------------------------|
A|------------------------|-------------5--------|--------------------------|
E|--0--2--3------------3--|-----2--3-------------|--0--0--0--0--0--0--0--0--|


    E  E  E  E  E  E  E  E     E  E  E  E  E  E  E  E     E  E  E  E  E  E  E  E
G|--------------------------|--------------------------|--------------------------|
D|--------------------------|--------------------------|--------------------------|
A|--------------------------|--------------------------|--------------------------|
E|--0--0--0--0--0--0--0--0--|--0--0--0--0--0--0--0--0--|--0--0--0--0--0--0--0--0--|


    E  E  E  E  E  E  E  E     E  E  E  E  E  E  E  E     E  E  E  E  E  E  E  E
G|--------------------------|--------------------------|--------------------------|
D|--------------------------|--------------------------|--------------------------|
A|--------------------------|--------------------------|--------------------------|
E|--0--0--0--0--0--0--0--0--|--0--0--0--0--0--0--0--0--|--0--0--0--0--3--5-----3--|


    E  E  E  E  E  E  E  E     E  E  E  E  E  E  E  E     E  E  E  E  E  E  E  E
G|--------------------------|--------------------------|--------------------------|
D|--------------------------|--------------------------|--------------------------|
A|--------------------------|--------------------------|--------------------------|
E|-----5-----3--L--0--0--0--|--0--0--0--0--0--0--0--0--|--0--0--0--0--0--0--0--0--|


    E  E  E  E  E  E  E  E     E  E  E  E  E  E  E  E     E  E  E  E  E  E  E  E
G|--------------------------|--------------------------|--------------------------|
D|--------------------------|--------------------------|--------------------------|
A|--------------------------|--------------------------|--------------------------|
E|--0--0--0--0--3--5-----3--|-----5-----3--L--0--0--0--|--3--3--3--3--3--3--3--3--|


                                                     Interlude 2
    E  E  E  E  E  E  E  E     Q    Q    H           E  E  Q    Q    E   E     E  E  Q     H
G|--------------------------|---------------------|-------------------------|-----------------------|
D|--------------------------|---------------------|-------------------------|-----------------------|
A|--------------------------|--7------------------|--7--5--7------------10--|-----9--7\----5--------|
E|--5--5--5--5--5--5--5--5--|---------------------|-------------------------|-----------------------|


    E  E  Q    Q    E  E     E  E  Q    H           E  E  Q    Q    E   E     E  E  Q     H
G|------------------------|----------------------|-------------------------|-----------------------|
D|------------------------|----------------------|-------------------------|-----------------------|
A|------------------------|----------------------|--7--5--7------------10--|-----9--7S----5--------|
E|--0--2--3------------3--|-----2--3----5--------|-------------------------|-----------------------|


                                                              Guitar Solo
    E  E  Q    Q    E  E     E  E  Q    Q    Q    H           E  E  E  E  E  E  E  E
G|------------------------|--------------------------------|--------------------------|
D|------------------------|--------------------------------|--------------------------|
A|------------------------|-------------5------------------|--------------------------|
E|--0--2--3------------3--|-----2--3-----------------------|--0--0--0--0--0--0--0--0--|


    E  E  E  E  E  E  E  E     E  E  E  E  E  E  E  E     E  E  E  E  E  E  E  E
G|--------------------------|--------------------------|--------------------------|
D|--------------------------|--------------------------|--------------------------|
A|--------------------------|--5--3--3--3--3--3--3--3--|-----2--3--3--3--5--5--5--|
E|--0--0--0--0--0--0--0--0--|--------------------------|--------------------------|


    E  E  E  E  E  E  E  E     E  E  E  E  E  E  E  E     E  E  E  E  E  E  E  E
G|--------------------------|--------------------------|--------------------------|
D|--------------------------|--------------------------|--------------------------|
A|--------------------------|--------------------------|--5--3--3--3--3--3--3--3--|
E|--0--0--0--0--0--0--0--0--|--0--0--0--0--0--0--0--0--|--------------------------|


    E  E  E  E  E  E  E  E     E  E  E  E  E  E  E  E     E  E  E  E  E  E  E  E
G|--------------------------|--------------------------|--------------------------|
D|--------------------------|--------------------------|--------------------------|
A|-----2--3--3--3--5--5--5--|--------------------------|--------------------------|
E|--------------------------|--0--0--0--0--0--0--0--0--|--0--0--0--0--0--0--0--0--|


    E  E  E  E  E  E  E  E     E  E  E  E  E  E  E  E     E  E  E  E  E  E  E  E
G|--------------------------|--------------------------|--------------------------|
D|--------------------------|--------------------------|--------------------------|
A|--5--3--3--3--3--3--3--3--|-----2--3--3--3--5--5--5--|--------------------------|
E|--------------------------|--------------------------|--0--0--0--0--0--0--0--0--|


    E  E  E  E  E  E  E  E     E  E  E  E  E  E  E  E     E  E  E  E  E  E  Q
G|--------------------------|--------------------------|-------------------------|
D|--------------------------|--------------------------|-------------------------|
A|--------------------------|--5--3--3--3--3--3--3--3--|-----2--3--3--3--5--5----|
E|--0--0--0--0--0--0--0--0--|--------------------------|-------------------------|


    Verse 3
    E  E  E  E  E  E  E  E     E  E  E  E  E  E  E  E     E  E  E  E  E  E  E  E
G|--------------------------|--------------------------|--------------------------|
D|--------------------------|--------------------------|--------------------------|
A|--------------------------|--------------------------|--------------------------|
E|--0--0--0--0--0--0--0--0--|--0--0--0--0--0--0--0--0--|--0--0--0--0--0--0--0--0--|


    E  E  E  E  E  E  E  E     E  E  E  E  E  E  E  E     E  E  E  E  E  E  E  E
G|--------------------------|--------------------------|--------------------------|
D|--------------------------|--------------------------|--------------------------|
A|--------------------------|--------------------------|--------------------------|
E|--0--0--0--0--0--0--0--0--|--0--0--0--0--0--0--0--0--|--0--0--0--0--0--0--0--0--|


    E  E  E  E  E  E  E  E     E  E  E  E  E  E  E  E     E  E  E  E  E  E  E  E
G|--------------------------|--------------------------|--------------------------|
D|--------------------------|--------------------------|--------------------------|
A|--------------------------|--------------------------|--------------------------|
E|--0--0--0--0--3--5-----3--|-----5-----3--L--0--0--0--|--0--0--0--0--0--0--0--0--|


    E  E  E  E  E  E  E  E     E  E  E  E  E  E  E  E     E  E  E  E  E  E  E  E
G|--------------------------|--------------------------|--------------------------|
D|--------------------------|--------------------------|--------------------------|
A|--------------------------|--------------------------|--------------------------|
E|--0--0--0--0--0--0--0--0--|--0--0--0--0--3--5-----3--|-----5-----3--L--0--0--0--|


    E  E  E  E  E  E  E  E     E  E  E  E  E  E  E  E     Q    Q    H
G|--------------------------|--------------------------|---------------------|
D|--------------------------|--------------------------|---------------------|
A|--------------------------|--------------------------|--7------------------|
E|--3--3--3--3--3--3--3--3--|--5--5--5--5--5--5--5--5--|---------------------|


    Outro
    E  E  E  E  E  E  E  E     E  E  E  E  E  E  E  E     E  E  E  E  E  E  E  E
G|--------------------------|--------------------------|--------------------------|
D|--------------------------|--------------------------|--------------------------|
A|--------------------------|--------------------------|--5--3--3--3--3--3--3--3--|
E|--0--0--0--0--0--0--0--0--|--0--0--0--0--0--0--0--0--|--------------------------|


    E  E  E  E  E  E  E  E     E  E  E  E  E  E  E  E     E  E  E  E  E  E  E  E
G|--------------------------|--------------------------|--------------------------|
D|--------------------------|--------------------------|--------------------------|
A|-----2--3--3--3--5--5--5--|--------------------------|--------------------------|
E|--------------------------|--0--0--0--0--0--0--0--0--|--0--0--0--0--0--0--0--0--|


    E  E  E  E  E  E  E  E     E  E  E  E  E  E  E  E     E  E  E  E  E  E  E  E
G|--------------------------|--------------------------|--------------------------|
D|--------------------------|--------------------------|--------------------------|
A|--5--3--3--3--3--3--3--3--|-----2--3--3--3--5--5--5--|--------------------------|
E|--------------------------|--------------------------|--0--0--0--0--0--0--0--0--|


    E  E  E  E  E  E  E  E     E  E  E  E  E  E  E  E     E  E  E  E  E  E  E  E
G|--------------------------|--------------------------|--------------------------|
D|--------------------------|--------------------------|--------------------------|
A|--------------------------|--5--3--3--3--3--3--3--3--|-----2--3--3--3--5--5--5--|
E|--0--0--0--0--0--0--0--0--|--------------------------|--------------------------|


    E  E  E  E  E  E  E  E     E  E  E  E  E  E  E  E     E  E  E  E  E  E  E  E
G|--------------------------|--------------------------|--------------------------|
D|--------------------------|--------------------------|--------------------------|
A|--------------------------|--------------------------|--5--3--3--3--3--3--3--3--|
E|--0--0--0--0--0--0--0--0--|--0--0--0--0--0--0--0--0--|--------------------------|


    E  E  E  E  E  E  E  E     E  E  E  E  E  E  E  E     E  E  E  E  E  E  E  E
G|--------------------------|--------------------------|--------------------------|
D|--------------------------|--------------------------|--------------------------|
A|-----2--3--3--3--5--5--5--|--------------5--7--2--5--|--3--2-----------2--------|
E|--------------------------|--0--3--2--7--------------|--------0--2--3-----3--2--|


              Transcribed by Isaias Garcia (TexasFury)
    Q    Q    H
G|-----------------------------------------------------||
D|-----------------------------------------------------||
A|-----------------------------------------------------||
E|--0--------------------------------------------------||


Duration Legend
---------------
W - whole
H - half
Q - quarter
E - 8th
Suggest correction
Give kudos to tab author, rate the tab!
1 2 3 4 5
comments
print report bad tab
2 comments total.
0 reply
Der Bassist 50 Sep 15, 2010 01:11 PM

Sounds right. I dont like this way of continued writing... I need more structure. But nice dude

0 reply
Der Bassist 50 Oct 01, 2010 06:31 AM

hehe Now its better. Great service. ;)

guest
You may want to rate the tab now too:
select rating
Wanna post a correction for this tab? Suggest correction