Oops, an error
Loading. Please wait.

The Hellion Bass Tab

version 1
version 1

Whole song

3,274 views 1 this week
2 commentsread comments
1 2 3 4 5
please rate
add to favorites
launch autoscroll
font size
0
reset
guitar tuner
Tab Pro tools
  • play this tab
  • loop segment
  • change instrument
  • show fretboard
  • metronome
×
Best way to learn
"The Hellion"
Autoscroll
slow
fast
+/-
esc
set tempo
stop
Riff A

G|------------------|------------------|
D|------------------|------------------|
A|------------------|------------------|
E|------------------|------------------|

Riff B

G|------------------|------------------|
D|------------------|------------------|
A|-------7----------|-------7----------|
E|------------------|------------------|

                                    4x
G|------------------|------------------|
D|------------------|------------------|
A|--------5---------|---3-----5--------|
E|------------------|------------------|

Riff C

G|------------------|------------------|
D|------------------|------------------|
A|-------7----------|-------(7)--------|
E|------------------|------------------|

Electric Eye

Riff A

G|--------------|---------------|------------------|
D|--------------|---------------|------------------|
A|--------------|---------------|------------------|
E|--0-----------|----------5----|------------------|


G|-------------|------------|-----------|
D|-------------|------------|-----------|
A|-----------7-|----------3-|-----------|
E|-------7-----|------------|---------5-|


G|-------------|-----------|
D|-------------|-----------|
A|-------------|-----------|
E|-----------7-|---------0-|

Riff B 
                   8x
G|-------------------|
D|-------------------|
A|-------------------|
E|-(0)-0-0-0-0-0-0-0-|

Riff C              8x
G|-------------------|
D|-------------------|
A|-0-0-0-0-0-0-0-0-0-|
E|-------------------|

Riff B 7x

Riff D

G|-----------------|-------------------|-----------------|
D|-----------------|-------------------|-----------------|
A|---------------3-|-(3)-3-3-3-3-3-3-3-|-3-3-3-3-3-3-3-0-|
E|-0-0-0-0-0-0-0---|-------------------|-----------------|

G|-------------------|-----------------|-------------------|
D|-------------------|-----------------|-------------------|
A|-(0)-0-0-0-0-0-0-0-|-0-0-0-0-0-0-0-5-|-(5)-5-5-5-5-5-5-5-|
E|-------------------|-----------------|-------------------|

                                                          1x
G|-----------------|---------------------|------------------|
D|-----------------|---------------------|------------------|
A|-5-5-5-5-5-5-5-2-|-(2)-2-2-2-2-2-2\-14-|--14--------------|
E|-----------------|---------------------|------------------|

Riff B 8x
Riff C 8x
Riff D 1x
Riff B 8x

E                                       1x
G|------------------|--------------------|
D|------------------|--------------------|
A|--2\--------------|-2--(2)--(2)--(2)-7-|
E|------------------|--------------------|

Riff F

G|------------------|------------------|------------------|
D|------------------|------------------|------------------|
A|-(7)--7-7-7-5---7-|-(7)--7-7-7-5---3-|-(3)--3-3---------|
E|------------------|------------------|----------3-3-3-0-|

1st ending
G|-----------------|
D|-----------------|
A|---------------7-|
E|-(0)-0-0-0-0-0---|

2nd ending

G|------------------|
D|------------------|
A|------------------|
E|-(0)-0-0-0-0-0-7--|

Riff G

G|-------------------|-----------------|
D|-------------------|-----------------|
A|-------------------|-----------------|
E|-(7)-7-7-7-5----7--|-(7)-7-7-7-5---3-|

                                   2x
G|-----------------|-----------------|
D|-----------------|-----------------|
A|-----------------|-----------------|
E|-(3)-3-3-5-5-5-7-|-(7)-7-7-7-7-7-7-|

Riff H
                                  2x
G|-----------------|-----------------|
D|-----------------|-----------------|
A|-3-3-3-3-3-3-3-3-|-3-3-3-3-3-3-3-0-|
E|-----------------|-----------------|

1st ending

G|-----------------|-----------------|
D|-----------------|-----------------|
A|-(0)-0-0-0-0-0-0-|-0-0-0-0-0-0-0-3-|
E|-----------------|-----------------|

2nd ending

G|-----------------|-----------------|
D|-----------------|-----------------|
A|-2-2-2-2-2-2-2-2-|-5-5-5-5-5-5-5-5-|
E|-----------------|-----------------|

Riff A 5x
Riff C 16x

Riff I
                 3x
G|-----------------|
D|-----------------|
A|-2-2-2-2-2-2-2-2-|
E|-----------------|

Riff J
                 1x
G|-----------------|
D|-----------------|
A|-----------------|
E|-2-2-2-2-2-2-2-2-|

Riff I 3x

Riff K   
           1x
G|--------------------|
D|--------------------|
A|---------------3-(3)|
E|-2-2-2-2-2-2-2------|

Riff D 1x

Riff B 8x

Riff L
G|----------------|---------------|-----------------|
D|----------------|---------------|-----------------|
A|-5--(5)---------|---------------|-----------------|
E|-------5--(5)---|-3-(3)-0-(0)---|-5--(5)-3-(3)--0-|

G|------------------|
D|------------------|
A|------------------|
E|-------(0)--------|
comments
We did not receive enough feedback on this tab! Please rate:
print report bad tab
1 2 3 4 5
2 comments total.
0 reply
WASP_God wrote on July 6 2009, 05:50 am

awesome tab dude, i think the timing from riff I to K is a bit off but its still worth a 5 star dude

0 reply
Zaqq wrote on July 3 2012, 03:11 pm

The Hellion part is wrong...

I want to post or [tab]
guest
You may want to rate the tab now too:
select rating
Please do not post tabs as comments. Select "correction" instead!