Oops, an error
Loading. Please wait.

The Hellion Tab

version 1
version 1
87,156 views 57 this week
7 commentsread comments
1 2 3 4 5
x 24
add to favorites
launch autoscroll
font size
0
reset
how to read this tab
guitar tuner
Autoscroll
slow
fast
+/-
esc
set tempo
stop
Help us to improve Ultimate-Guitar.com Take our survey!
×
Author
The Hellion - Judas Priest
Tabbed by: Guns4tots
Email:  Sanitymaybe@hotmail.com
Tuning: Standard

     guitar 1(Tipton)   2X
e||------------------------|--------7--5~~-------|-------------------------||
B||---------8--7~~---------|----------------8~~--|-------------------------||
G||-----------------9~~----|---------------------|--------5--------7-------||
D||------------------------|-----7---------------|-----5--------7----------||
A||------7-----------------|--5------------------|--3--------5--------2~~--||
E||---0--------------------|---------------------|-------------------------||

     guitar 1(Tipton)   2X
e||------------------------|--------7--5~~-------|-------------------------||
B||---------8--7~~---------|----------------8~~--|-------------------------||
G||-----------------9~~----|---------------------|--------5--------7-------||
D||------------------------|-----7---------------|-----5--------7----------||
A||------7-----------------|--5------------------|--3--------5--------2~~--||
E||---0--------------------|---------------------|-------------------------||

 ||  guitar 2(Downing)  2X |                     |                   bend~~||
e||---------12-10~~-12~----|--------19-17~~-15~~-|--19~~----22~~--19p22(24)||
B||------------------------|---------------------|-------------------------||
G||------------------------|---------------------|-------------------------||
D||------------------------|---------------------|-------------------------||
A||------------------------|---------------------|-------------------------||
E||------------------------|---------------------|-------------------------||


************************************

| (n)  Ghost note
| p    Pull-off
| ~    Vibrato

************************************

            Segue to Electric Eye...enjoy!
Suggest correction
comments
print report bad tab
7 comments total. Showing first comments.
0 reply
The Hellion 10 Jul 31, 2005 12:00 AM

very strange tabbing. It's not even close to the tabbing in the Priest's official site and sounds very strange too. 19p22 was however, something new to me ;) 19h22 maybe, or 22p19 but 19p22...

+2 reply
westvipor 10 Jul 08, 2007 04:07 PM

I think its great. good job. Sounds perfect to me.:m:

0 reply
Ice Cold J 30 Oct 21, 2007 11:59 AM

Sounds perfect except the:
e:------------
B:------------
G:----5-----7-
D:--5-----7---
A:3-----5----2
E:------------

Are you SURE that's a B (the 2 you land on)?
Still, it's pretty damn close even if I'm right.

guest
You may want to rate the tab now too:
select rating
Wanna post a correction for this tab? Suggest correction