Oops, an error
Loading. Please wait.

The Hellion Tab

version 2
version 2
5,636 views 18 this week
1 commentread comment
1 2 3 4 5
please rate
add to favorites
launch autoscroll
font size
0
reset
how to read this tab
guitar tuner
Autoscroll
slow
fast
+/-
esc
set tempo
stop
Help us to improve Ultimate-Guitar.com Take our survey!
×
Author
Difficulty
novice
JUDAS PRIEST
The Hellion


E||----------------------|----------------------|-------7---------------|
B||-------8--7-----------|-------8--7-----------|----------10------8~---|
G||-----------------9~---|-----------------9~---|-----------------------|
D||----9-----------------|----9-----------------|----9------------------|
A||----------------------|----------------------|-----------------------|
E||----------------------|----------------------|-----------------------|

-------------------------|----------------------|----------------------|
-------------------------|-------8--7-----------|-------8--7-----------|
------------7----9-------|-----------------9~---|-----------------9~---|
--------10----------9~---|----9-----------------|----9-----------------|
----10-------------------|----------------------|----------------------|
-------------------------|----------------------|----------------------|

-------7---------------|-------------------------|----------------------|
----------10------8~---|-------------------------|-------8--7-----------|
-----------------------|------------7----9-------|-----------------9~---|
----9------------------|--------10----------9~---|----9-----------------|
-----------------------|----10-------------------|----------------------|
-----------------------|-------------------------|----------------------|

----------------------|-------7---------------|-------------------------|
-------8--7-----------|----------10------8~---|-------------------------|
-----------------9~---|-----------------------|------------7----9-------|
----9-----------------|----9------------------|--------10----------9~---|
----------------------|-----------------------|----10-------------------|
----------------------|-----------------------|-------------------------|

----------------------|----------------------|-------7---------------|
-------8--7-----------|-------8--7-----------|----------10------8~---|
-----------------9~---|-----------------9~---|-----------------------|
----9-----------------|----9-----------------|----9------------------|
----------------------|----------------------|-----------------------|
----------------------|----------------------|-----------------------|

-------------------------|
-------------------------|
------------7----9-------|
--------10----------9~---|
----10-------------------|
-------------------------|

Tabbed by Ed_Hunter
Suggest correction
Give kudos to tab author, rate the tab!
1 2 3 4 5
comments
print report bad tab
1 comment total.
-1 reply
westvipor 10 wrote on February 18 2008, 02:27 pm

Its a good tab but its missin a few things. Its very good for some1 one just wants to play around and do the basic song. All that is there is the basic part.

Its right tho. right notes

guest
You may want to rate the tab now too:
select rating
Wanna post a correction for this tab? Suggest correction