Oops, an error
Loading. Please wait.

The Hellion Tab

version 3
version 3
2,260 views 1 this week
1 commentread comment
1 2 3 4 5
2 more votes to show rating
add to favorites
launch autoscroll
font size
0
reset
how to read this tab
guitar tuner
Autoscroll
slow
fast
+/-
esc
set tempo
stop
Help us to improve Ultimate-Guitar.com Take our survey!
×
Author
Difficulty
novice
                               THE HELLION

band: Judas Priest
writted by: G.Tipton, R.Halford, K.K.downing
song: The Hellion
Album: Screaming for Vengeance
Tabbed by: ghavelus
Email: ghavhelus@hotmail.com


ok this is my first tab so i will do my best i hope you like it

note: in the bend and release parts you must bend and release slowly to 1/4
note: the second guitar part is very confusing so i think that these part will be wrong 
you hear the second guitar in the song you will hear the first chord like an E but the 
next chord are high¿er than E


      guitar 1          x2
e||---------------------|---------------------|--------------------------||
B||---------------------|------12--10br-------|--------------------------||
G||------12-11br---9==--|----------------12==-|-------------9h11---------||
D||---7-----------------|---7-----------------|------9--11--------11==---||
A||---------------------|---------------------|---9----------------------||
E||0--------------------|0--------------------|0-------------------------||

      guitar 2          x2
e||---------------------|---------------------|--------------------------||
B||---------------------|---------------------|--------------------------||
G||---------------------|---------------------|--------------------------||
D||2--------------------|5?-------------------|7?--------10?-------------||
A||2--------------------|5?-------------------|7?--------10?-------------||
E||0--------------------|3?-------------------|5?--------8?--------------||

the riff above repeats by two times

in the next riff both guitars eneter palying the same part this riff repeats 2 times too

     guitar 1          x2
e||---------------------|---------------------|--------------------------||
B||---------------------|------12--10br-------|--------------------------||
G||------12-11br---9==--|----------------12==-|-------------9h11---------||
D||---7-----------------|---7-----------------|------9--11--------11==---||
A||---------------------|---------------------|---9----------------------||
E||0--------------------|0--------------------|0-------------------------||


     guitar 2          x2
e||---------------------|---------------------|--------------------------||
B||---------------------|------12--10br-------|--------------------------||
G||------12-11br---9==--|----------------12==-|-------------9h11---------||
D||---7-----------------|---7-----------------|------9--11--------11==---||
A||---------------------|---------------------|---9----------------------||
E||0--------------------|0--------------------|0-------------------------||


in the next riff the guitar 1 you can bend to 3/4 or just do the vibrato i bend to 3/4 
use my vibrato effect in my guitar (the oppuest to the "tremolo bar")the problem is, that 
every guitar has this effect so you can use a pedal to do both effects or you can do the
effect that like more (vibrato or bend).


    guitar 1
e||---------------------|------------------------|-----------------------||
B||-----------------18b=|------------18b=--------|-----------------------||
G||---------------------|----18b=------------18b=|-----------------------||
D||---------------------|------------------------|-----------------------||
A||---------------------|------------------------|-----------------------||
E||---------------------|------------------------|-----------------------||

    guitar 2
e||---------------------|----------------------|--------------------------||
B||---------------------|----------------------|--------------------------||
G||---------------------|----------------------|--------------------------||
D||---------------------|----------------------|--------------------------||
A||---------------------|----------------------|--------------------------||
E||-0-0-0-0-0-0-0-0-0-0-|0-0-0-0-0-0-0-0-0-0-0-|0-0-----------------------||


 now enters electric eye...

i hope you are stisfied with this tab thank you for your attention and i will thankk you 
if you rate this tab.

                                  enjoy!!!!

                              from: ghavelus

| h----hammer-on
| p----pull-off
| =----vibrato
| b----bend
| pm---Mute note
| br--- bend and release
=============================================================================
Suggest correction
Give kudos to tab author, rate the tab!
1 2 3 4 5
comments
print report bad tab
1 comment total.
0 reply
westvipor 10 Feb 18, 2008 02:32 PM

its wrong, but close

guest
You may want to rate the tab now too:
select rating
Wanna post a correction for this tab? Suggest correction