Oops, an error
Loading. Please wait.

The Ripper Bass Tab

version 1
version 1

Live

Whole song

560 views 1 this week
no commentswrite comment
1 2 3 4 5
please rate
add to favorites
launch autoscroll
font size
0
reset
guitar tuner
Autoscroll
slow
fast
+/-
esc
set tempo
stop
Help us to improve Ultimate-Guitar.com Take our survey!
×
Author
TexasFury 7,168
-------------------------------------------------------------------------------
			     THE RIPPER - Judas Priest
-------------------------------------------------------------------------------


Tabbed By : Isaias Garcia (TexasFury)

Album: Unleashed In The East (1978 - Live)

Tuning: Standard


Intro
     W                   W                   W                   W                 
G||-------------------|-------------------|-------------------|-------------------|
D||-------------------|-------------------|-------------------|-------------------|
A||-------------------|-------------------|-------------------|-------------------|
E||-------------------|-------------------|-------------------|-------------------|


  W                   W                   H        Q       E.  S E  E  S E.  S S S S  
-------------------|-------------------|----------------|----------------------------|
-------------------|-------------------|----------------|--7---7----7----7---7-5-5-7-|
-------------------|-------------------|----------------|--7---7----7----7---7-5-5-7-|
-------------------|-------------------|----------------|----------------------------|

Verse 1
  E  S S S S E  S E  S S S S S    E  S S S S E  S E  S S S S S    E  S S S S E  S E  S S  E   S  
-------------------------------|-------------------------------|--------------------------------|
--7----7-----7----7----7-5-5-7-|--7----7-----7----7----7-5-5-7-|--7----7-----7----7----7s-5s--7-|
--7----7-----7----7----7-5-5-7-|--7----7-----7----7----7-5-5-7-|--7----7-----7----7----7s-5s--7-|
-----5-----5----5----5---------|-----5-----5----5----5---------|-----5-----5----5----5----------|


  E  S S S S E  S S E  S S S S    Q.     E  E  E  Q       E.  S S  S E  Q     
-------------------------------|-----------------------|---------------------|
--7----7---------------7-5-5-7-|------------------5----|--------3s-2---------|
--7----7---------------7-5-5-7-|--3--------------------|------3--------------|
-----5-----5-0--0-0-0----------|---------3--L--3-------|--1----------0--L----|

                                                      Verse 2
  E  E  E  E  E  E  E  E     E  E  E  E  E  E  E  E     E  S S S S E  S S S S S  E  S  
--------------------------|--------------------------|--------------------------------|
--------------------------|--------------------------|-------7-----7------7---7s-5--7-|
--------------------------|--------------4--5--6--7--|-------7-----7----7-7---7s-5--7-|
--5--5--5--5--5--5--5--5--|--5--5--5--5--------------|--5--------5----5-----5---------|


  E  S S S S E  S E  S S  E  S    E  S S S S E  S E  S S  E  S    E  S S S S S S S E  S S  E  S  
-------------------------------|-------------------------------|--------------------------------|
-------7-----7----7----7s-5--7-|--7----7-----7----7----7s-5--7-|-------7-----------7----7s-5--7-|
-------7-----7----7----7s-5--7-|--7----7-----7----7----7s-5--7-|-------7-----------7----7s-5--7-|
--5--------5----5----5---------|-----5-----5----5----5---------|--5------5-5-5-5-5----5---------|


  Q.     E  E  E  Q       E.  S S  S E  Q       E  E  E  E  E  E  E  E     E  E  E  E  E  E  E  E   
-----------------------|---------------------|--------------------------|--------------------------|
------------------5----|--------3s-2---------|--------------------------|--------------------------|
--3--------------------|------3--------------|--------------------------|--------------4--5--6--7--|
---------3--L--3-------|--1----------0--L----|--5--5--5--5--5--5--5--5--|--5--5--5--5--------------|


  E  E  E  E  E  E  E  E     E  E  E  E  E  E  E  E     E  E  E  E  E  E  E  E   
--------------------------|--------------------------|--------------------------|
--------------------------|--------------------------|--------------------------|
--------------------------|--------------4--5--6--7--|--------------------------|
--5--5--5--5--5--5--5--5--|--5--5--5--5--------------|--5--5--5--5--5--5--5--5--|


  E  E  E  E  E  E  E  E     E  E  E  E     E  E  E  E  E  E  E  E     E  E  E  E  E  E  E  E   
--------------------------|--------5--7--|--------------------------|--------------------------|
--------------------------|--5--7--------|--------------------------|--------------------------|
--------------4--5--6--7--|--------------|--7--7--7--7--7--7--7--7--|--7--7--7--7--7--7--5--5--|
--5--5--5--5--------------|--------------|--------------------------|--------------------------|


  E  E  E  E  E  E  E  E     E  E  E  E  E  E  E  E      E   E   E   E   E   E   E   E   
--------------------------|--------------------------|----------------------------------|
--------------------------|--------------------------|----------------------------------|
--7--7--7--7--7--7--7--7--|--7--7--7--7--7--7--5--5--|--12--12--12--12--12--12--12--12--|
--------------------------|--------------------------|----------------------------------|


   E   E   E   E   E   E   E   E      E   E   E   E   E   E   E   E      H          E  E  Q     
----------------------------------|----------------------------------|--12S--------11--7--L----|
----------------------------------|----------------------------------|-------------------------|
--12--12--12--12--12--12--10--12--|--12--12--12--12--12--12--10--12--|-------------------------|
----------------------------------|----------------------------------|-------------------------|

                          Guitars Soli
  Q    Q    E   E  E  E     W                   W                   W                 
-------------------------|-------------------|-------------------|-------------------|
-------7-----------------|-------------------|-------------------|-------------------|
-------------------------|--7----------------|--L----------------|-------------------|
--5---------5\--2--3--5--|-------------------|-------------------|-------------------|


  W                   W                   W                   S S S S E  S S S S S S S E.    
-------------------|-------------------|-------------------|--------------------------------|
-------------------|-------------------|-------------------|---------------------------7\---|
-------------------|-------------------|-------------------|--7-7-7-7-7--7-7-7-7-7-7-7-7\---|
-------------------|-------------------|-------------------|--------------------------------|


  S S S S E  S S S S S S S E.      S S S S E  S S S S S S S E.      S S S S E  S S S S S S S E.    
--------------------------------|--------------------------------|--------------------------------|
---------------------------7\---|---------------------------7\---|---------------------------7\---|
--7-7-7-7-7--7-7-7-7-7-7-7-7\---|--7-7-7-7-7--7-7-7-7-7-7-7-7\---|--7-7-7-7-7--7-7-7-7-7-7-7-7\---|
--------------------------------|--------------------------------|--------------------------------|

Verse 3
  E  S S S S E  S E  S S  E  S    E  S S S S E  S E  S S  E  S    E  S S S S E  S E  S S  E  S  
-------------------------------|-------------------------------|-------------------------------|
--7----7-----7----7----7s-5--7-|--7----7-----7----7----7s-5--7-|--7----7-----7----7----7s-5--7-|
--7----7-----7----7----7s-5--7-|--7----7-----7----7----7s-5--7-|--7----7-----7----7----7s-5--7-|
-----5-----5----5----5---------|-----5-----5----5----5---------|-----5-----5----5----5---------|


  E  S S S S E  S E  S S  E  S    E  S S S S E  S E  S S  E  S    E  S S S S E  S E  S S  E  S  
-------------------------------|-------------------------------|-------------------------------|
--7----7-----7----7----7s-5--7-|--7----7-----7----7----7s-5--7-|--7----7-----7----7----7s-5--7-|
--7----7-----7----7----7s-5--7-|--7----7-----7----7----7s-5--7-|--7----7-----7----7----7s-5--7-|
-----5-----5----5----5---------|-----5-----5----5----5---------|-----5-----5----5----5---------|


  E  S S S S E  S E  S S  E  S    E  S S S S E  S E  S S  E  S    Q.     E  E  E  Q     
-------------------------------|-------------------------------|-----------------------|
--7----7-----7----7----7s-5--7-|--7----7-----7----7----7s-5--7-|------------------5----|
--7----7-----7----7----7s-5--7-|--7----7-----7----7----7s-5--7-|--3--------------------|
-----5-----5----5----5---------|-----5-----5----5----5---------|---------3--L--3-------|


  E.  S S  S E  E  E     E  E  E  E  E  E  E  E     E  E  E  E  E  E  E  E   
----------------------|--------------------------|--------------------------|
--------3s-2-------9--|--------------------------|--------------------------|
------3------------7--|--------------------------|--------------4--5--6--7--|
--1----------0--L-----|--5--5--5--5--5--5--5--5--|--5--5--5--5--------------|


  E  E  E  E  E  E  E  E     E  E  E  E  E  E  E  E     E  E  E  E  E  E  E  E   
--------------------------|--------------------------|--------------------------|
--------------------------|--------------------------|--------------------------|
--------------------------|--------------4--5--6--7--|--------------------------|
--5--5--5--5--5--5--5--5--|--5--5--5--5--------------|--5--5--5--5--5--5--5--5--|


  E  E  E  E  E  E  E  E     E  E  E  E  E   E   E   E     W                   W                 
--------------------------|--------5--7-----------------|-------------------|-------------------|
--------------------------|--5--7---------------10--10--|--9----------------|--L----------------|
--------------4--5--6--7--|-----------------12----------|--7----------------|--L----------------|
--5--5--5--5--------------|-----------------------------|-------------------|-------------------|

   
  E  E  E  E  Q    Q                                          
-----5--4--5--2---------------------------------------------||
--7-----------2---------------------------------------------||
--------------0---------------------------------------------||
------------------------------------------------------------||




Duration Legend
---------------
W - whole
H - half
Q - quarter
E - 8th
S - 16th
T - 32nd
X - 64th
. - note dotted
|-n-|  - n-tuplets


Tablature Legend
----------------
L - tied note
x - dead note
g - grace note
(n) - ghost note
> - accentuded note
NH - natural harmonic
AH - artificial harmonic
TH - tapped harmonic
SH - semi harmonic
PH - pitch harmonic
h - hammer on
p - pull off
b - bend
br - bendRelease
pb - preBend
pbr - preBendRelease
brb - bendReleaseBend
\n/ - tremolo bar dip
\n - tremolo bar dive
-/n - tremolo bar Release up
/n\ - tremolo bar inverted dip
/n - tremolo bar return
-\n - tremolo bar Release down
S - shift slide
s - legato slide
/ -  slide into from below or out of upwards
\ -  slide into from above or out of downwards
~ - vibrato
W - wide vibrato
tr - trill
TP - tremolo picking
T - tapping
S - slap
P - pop
< - fade in
^ - brush up
v - brush down
Suggest correction
What's this?
You can suggest a correction to this tab. Community and Mods will review your correction and vote to approve or reject it.
comments
We did not receive enough feedback on this tab! Please rate:
print report bad tab
1 2 3 4 5
guest
You may want to rate the tab now too:
select rating
Please do not post tabs as comments. Select "correction" instead!