Oops, an error
Loading. Please wait.

The Ripper Tab

version 1
version 1
51,716 views 42 this week
4 commentsread comments
1 2 3 4 5
x 27
add to favorites
launch autoscroll
font size
0
reset
how to read this tab
guitar tuner
Autoscroll
slow
fast
+/-
esc
set tempo
stop
Help us to improve Ultimate-Guitar.com Take our survey!
×
JUDAS PRIEST:   From: Sad wings of destiny '76
                          THE RIPPER           Unleashed in the east '79
  
  
    [Intro:]                       Guitar 2:
                            ~~                        ~~
e|  |--------------14-------17-|-------------16-------19-|
B|  |-12-14-15-12-----15-12----|-14-16-17-14----17-14----|
G|  |--------------------------|-------------------------|
D|  |--------------------------|-------------------------|
A|  |--------------------------|-------------------------|
E|  |--------------------------|-------------------------|
  
e|  |--------------------------|-------------------------------------------------|
B|  |--------------------------|-------------------------------------------------|
G|  |--------------------------|-------------------------------------------------|
D|  |--------------------------|-------------------------------------------------|
A|  |-7-7-7-7-7-7....----------|-10-10-10-10-10-10-10-5-5-5-5-5-5-5-3-3-3-3-3-3-3|
E|  |-5-5-5-5-5-5....----------|-8--8--8--8--8--8--8--3-3-3-3-3-3-3-1-1-1-1-1-1-1|
  You're in for surprise...  When you least expect me...
  
e|  |--------------------------------|---------------------|
B|  |--------------------------------|---------------------|
G|  |-------------------------sl--sl-|---------------------|
D|  |--------------------------------|---------------------|
A|  |-2-2-2-2--------7-7-7-7-7 5-5<7-|-10----5----3----2---|
E|  |-0-0-0-0--------5-5-5-5-5 3-3<5-|-8-----3----1----0---|
            I'll attack             Oh hear my warning...
  
e|  |-------------------------------------|--------------------------------------|
B|  |----------------------8-7------------|-----------sl--sl---------------------|
G|  |------------------7-9-----7-10-9-8-9-|--------------------------------------|
D|  |------7-9-10-9-10--------------------|--------7-5 3-3<5---------------------|
A|  |-------------------------------------|-7-7-7--5-3 1-1<3---------------------|
E|  |-------------------------------------|-5-5-5--------------------------------|
   the ripper                             fill
  
[Solo]
  |-br-------------br-p.o------------br-------------br-p.o------br-------------
  |-15-13-12-13----13-12----12-13-15-15-13-12-13----13-12----12-12-10-12----10-
  |----------------------14-------------------------------14-------------12----
  |-------------14-------------------------------14----------------------------
  |----------------------------------------------------------------------------
  |----------------------------------------------------------------------------
  
e|  |br-------------br---------------------------------------|
B|  |12-10-12-10-12-12-10-12-10---------10-------13-13----10-|
G|  |---------------------------12-11-9----12----------12----|
D|  |-----------------------------------------12-------------|
A|  |--------------------------------------------------------|
E|  |--------------------------------------------------------|
  
    |:  2 times                     :|
e|  |--------------------------------|-------------------------------------|
B|  |--------------------------------|-------------------------------------|
G|  |--------------------------------|-------------------------------------|
D|  |------------7-----------------7-|---------------8--------------------8|
A|  |7-9-10-9-10--10-9-7-9-10-9-10---|8-10-11-10-11---11-10-8-10-11-10-11--|
E|  |--------------------------------|-------------------------------------|
  
e|  |-----------------------------------------------------------------------------
B|  |-----------------------------------------------------------------------------
G|  |-----------------------------------------------------------------------------
D|  |--------------9---------------------9----------------10----------------------
A|  |9-11-12-11-12---12-11-9-11-12-11-12---10-12-13-12-13----13-12-10-12-13-12-13-
E|  |-----------------------------------------------------------------------------
  
e|  ---|-------------------------------------------------------------------|
B|  ---|-------------------------------------------------------------------|
G|  ---|-------------------------------------------------------------------|
D|  -10|----------------11----------------------------------------------14-|
A|  ---|-11-13-14-13-14----14-13-12-14-15-14-13-15-16-15-14-16-17-16-17----|
E|  ---|-------------------------------------------------------------------|
  
    |: 2 times
e|  |---------------------------------|----------------------------------------|
B|  |---------------------------------|----------------------------------------|
G|  |---------------------------------|----------------------------------------|
D|  |-------------7-----------------7-|-7------6-----5-----7-------------------|
A|  |-7-9-10-9-10--10-9-7-9-10-9-10---|----------------------------------------|
E|  |---------------------------------|----------------------------------------|
                                     fill ("I'm a nasty surprise...")
  
    End:
    |: 2 times                      :|
e|  |--------------------------------|-------------------------------------------|
B|  |-----------------8-7------------|-----------------8-7-----------------------|
G|  |-------------7-9-----7-10-9-8-9-|-------------7-9-----7-10-9-8-9-8-7-8------|
D|  |-7-9-10-9-10--------------------|-7-9-10-9-10--------------------------10---|
A|  |--------------------------------|-------------------------------------------|
E|  |--------------------------------|-------------------------------------------|
  
e|  |---------------------|
B|  |---------------------|
G|  |---------------------|
D|  |-10-9-10---10-9-10-7-|
A|  |---------7-----------|
E|  |---------------------|
  
  Am
  You're in for surprise,
  
  you're in for a shock
  
  in Londontown streets
  
  when there is darkness and fog.
       C           G
  When you least expect me
      F             E         A
  and you turn your back I'll attack
  
  I smile when I'm sneaking
  
  thru shadows by the wall
  
  I laugh whilst I'm creeping
  
  though you won't hear me at all.
  C          G
  Oh hear my warning
  F               E
  never turn your back
         A
  on the ripper
  
  You'll soon shake with fear
  
  never knowing if I'm near
  
  I'm sly and I'm shameless
  
  nocturnal and nameless
  C                G
  except for the ripper
  
  or if you like
  
  Jack the knife
  
  A
  On a back alley street
  
  is where we'll prob'ly meet
  
  underneath a gas lamp
  
  where the air is cold and damp
  
  I'm a nasty surprise
        F
  I'm a devil in disguise
        E
  I'm a footstep at night
  A
  I'm a scream out with fright
  C           G
  Oh, hear my warning,
  F               E
  never turn your back
         A
  on the ripper



************************************

  br  = bend up and release
  p.o = pull off
  sl  = slide
  ~~  = vibrato 

************************************
Suggest correction
comments
print report bad tab
4 comments total. Showing first comments.
0 reply
IdiotSlayer 10 Oct 23, 2006 05:16 PM

You didn't write in the symbols for when they use palm muting, but otherwise, good tabs.

0 reply
Deep*Kick 30 Jul 17, 2008 01:19 AM

> |--------------------------------|---------------------|
> |--------------------------------|---------------------|
> |-------------------------sl--sl-|---------------------|
> |--------------------------------|---------------------|
> |-2-2-2-2--------7-7-7-7-7>5-5 |-0-0-0-0--------5-5-5-5-5>3-3 I'll attack Oh hear my warning...

for this part with the A power chord above attack it sounds to me like there are palm muted pedal notes in between the full sounded chords but apart from that EXCELLENT

0 reply
scruyou 10 Dec 06, 2008 05:44 PM

you're missing the transition before the solo
and the ending of the solo dosnt sound right
otherwise good job! i appreciate the work

guest
You may want to rate the tab now too:
select rating
Wanna post a correction for this tab? Suggest correction