Oops, an error
Loading. Please wait.

The Ripper Tab

version 2
version 2
7,077 views 1 this week
2 commentsread comments
1 2 3 4 5
worth learning
x 3
add to favorites
launch autoscroll
font size
0
reset
how to read this tab
guitar tuner
Autoscroll
slow
fast
+/-
esc
set tempo
stop
Help us to improve Ultimate-Guitar.com Take our survey!
×
Intro: the first five different
notes are repeated many times.  The
rhythm is obvious in the song.

E--------------------------------------|
B--------------------------------------|
G--------------------------------------|
D--------------------------------------|
A--0--3-----------7-7-7-7-7-5-5--------|
E--------3--1--0--5-5-5-5-5-3-3--------|

Verse:

E----------------------------------------------------|
B----------------------------------------------------|
G----------------------------------------------------|
D-7-----7-----7-----7-----7-5-5--5-------------------|
A-0-0-0-0-0-0-0-0-0-0-0-0-0-0-0--3--5--3--2----------|
E-----------------------------------3--1--0----------|

Bridge:

E--------------------------------------|
B--------------------------------------|
G-------------7-9-12-11----10-9----8---|
D-7-9-10-9-10-----------12------10-----|
A--------------------------------------|
E--------------------------------------|

Last Bridge Riff Repetition Before the Solo:
it has four extra notes at the end.

E----------------------------------------------|
B----------------------------------------------|
G-------------7-9-12-11----10-9----8-7----7----|
D-7-9-10-9-10-----------12------10-----10---10-|
A----------------------------------------------|
E----------------------------------------------|

Solo Riff: It's basically a jam on the
open E string and open A string

E--------------------------------------|
B--------------------------------------|
G--------------------------------------|
D------------------7-7-7-7-7-7-7-5-----|
A-7-7-7-7-7-7-7-5--0-0-0-0-0-0-0-------|
E-0-0-0-0-0-0-0------------------------|

Little Bass/Vocal Fill Just
Before the Quiet Part:

E----------------------------------------|
B-(Vocals)-4-3---------------------------|
G----------------------------------------|
D----------------------------------------|
A-(Bass)---3-2---------------------------|
E-(Bass)-------4-5--3-0------------------|

Quiet Part:

E--------------------------------------|
B--------------------------------------|
G-(Do this one twice)------------------|
D--------------------------------------|
A-7-9-10-9-10-12-10-9-7-9-10-9-10-12---|
E--------------------------------------|

E-----------------------------------------|
B-----------------------------------------|
G-----------------------------------------|
D-----------------------------------------|
A-8-10-11-10-11-13-11-10-8-10-11-10-11-13-|
E-----------------------------------------|

E-----------------------------------------|
B-----------------------------------------|
G-----------------------------------------|
D-----------------------------------------|
A-9-11-12-11-12-14-12-11-9-11-12-11-12-14-|
E-----------------------------------------|

E-------------------------------------------------|
B-------------------------------------------------|
G-------------------------------------------------|
D-------------------------------------------------|
A-10-12-13-12-13-15-13-12-11-13-14-13-14-16-14-13-|
E-------------------------------------------------|

E-------------------------------------------|
B-------------------------------------------|
G-------------------------------------------|
D-------------------------------------------|
A-12-14-15-14-13-15-16-15-14-16-17-16-17-19-|
E-------------------------------------------|

Brief Riff Before the Last Verse:

E--------------------------------------|
B--------------------------------------|
G--------------------------------------|
D--------------------------------------|
A-7-7-7-7-7-7-7-7----------------------|
E-0-0-0-0-0-0-0-5----------------------|


Guitar Fills During the Last Verse:
this one is a little shady.  I can
barely catch the end of it.  I think
it's right.

E-(Do this one twice)------------------|
B--------------------------------------|
G-7--5-4-------------------------------|
D-7--5-4-7-5-7-------------------------|
A--------7-5-7-------------------------|
E--------------------------------------|

Guitar Fills During the Last Verse:

E--------------------------------------|
B--------------------------------------|
G-2--1--0--2---------------------------|
D-2--1--0--2---------------------------|
A--------------------------------------|
E--------------------------------------|

Last Bridge Riff of the Song:
it has a bunch of extra notes at the end.

E-----------------------------------------------------------------------|
B-----------------------------------------------------------------------|
G-------------7-9-12-11----10-9----8-7----7------10-9-10------10-9-10-7-|
D-7-9-10-9-10-----------12------10-----10---10-7---------7--7-----------|
A-----------------------------------------------------------------------|
E-----------------------------------------------------------------------|

THE PRIEST!!!!!!!!!!
Suggest correction
Give kudos to tab author, rate the tab!
1 2 3 4 5
comments
print report bad tab
2 comments total.
0 reply
sonic_knx 10 wrote on November 19 2010, 09:53 pm

The intro is sooo off. Version 1 is best.

0 reply
BaptizedinFire 7,596 wrote on August 3 2012, 07:23 am

Nah, I would rather go for version 4 or 5. Version 1 is far worse in places.

guest
You may want to rate the tab now too:
select rating
Wanna post a correction for this tab? Suggest correction