Oops, an error
Loading. Please wait.

The Sentinel Bass Tab

version 1
version 1

Whole song

Interactive

3,191 views 9 this week
no commentswrite comment
1 2 3 4 5
please rate
add to favorites
launch autoscroll
font size
0
reset
guitar tuner
Autoscroll
slow
fast
+/-
esc
set tempo
stop
Help us to improve Ultimate-Guitar.com Take our survey!
×
Difficulty
intermediate
Band: Judas Priest
Song: The sentinel
album: Defenders of the faith

bass line  - Ian Hill

Copyright (c)  (Sony) (1990)
Version 1.0

standar: tuning E

The first part in the guitars duel the bass is mute

Intro bass
intro riff 1
|---------------------------|---------|------|-----------------|
|-----3---------------------|---------|------|-----------------|
|--5------3------2--3--0----|-----0---|------|----------0---0--|
|---------------------------|---------|------|-----------------|

Verse1 riff 2
|--------------------------|--------------------------|--------------------------|
|--------------------------|--------------------------|--------------------------|
|--0--0--0--0--0--0--0--0--|--0--0--0--0--0--0--0--0--|--0--0--0--0--0--0--0--3--|
|--------------------------|--------------------------|--------------------------|

|-------------------------|--------------------------|--------------------------|
|-------------------------|--------------------------|--------------------------|
|--3--0--3--0-----0----0--|--0--0--0--0--0--0--0--0--|--0--0--0--0--0--0--0--0--|
|--------------3----------|--------------------------|--------------------------|

|--------------------------|----------------------|------------|------------------|
|--------------------------|----------------------|------------|------------------|
|--0--0--0--0--0--0--0--3--|--3--0--3--0--3--5----|---7----8---|----3-----0----0--|
|--------------------------|----------------------|------------|------------------|

|--------------------------|---------------------|---------------|--------------------|
|--------------------------|---------------------|---------------|-----5--------------|
|--0--0--0--0--0--0--0--3--|--3--0--3--0--3--5---|----7-----8----|------------7----7--|
|--------------------------|---------------------|---------------|--------------------|

|---------------------|
|---------------------|
|--7--7--7--7--7--7---|
|---------------------|

Chorus riff 3
|------------|--------------------------|------------------------|------------------------|
|------------|--------------------------|------------------------|------------------------|
|-----0---0--|--0--0--0--0--0--0--0--0--|--0--0--0--0--0--0---0--|--0--0--0--0--0--0---0--|
|------------|--------------------------|------------------------|------------------------|

|-------------------------|-------------------------|-------------------------|
|-------------------------|-------------------------|-------------------------|
|--0--0--0--0--0----------|-------------------------|-----------------5----5--|
|-----------------1----1--|--1--1--1--1--1--1----1--|--1--1--1--1--1----------|

|-------------------------|
|-------------------------|
|--5--5--5--5--3--2----3--|
|-------------------------|

Play this before the verse and after the chorus in the first part
|-------------------------|--------------------------|
|-------------------------|--------------------------|
|--3--0--3--0-----0----0--|--0--0--0--0--0--0--0--0--|
|--------------3----------|--------------------------|

Verse 2 riff 2 part 2
|--------------------------|--------------------------|-------------------------|
|--------------------------|--------------------------|-------------------------|
|--0--0--0--0--0--0--0--0--|--0--0--0--0--0--0--0--3--|--3--0--3--0-----0----0--|
|--------------------------|--------------------------|--------------3----------|

|--------------------------|--------------------------|-----------------------|------------------|
|--------------------------|--------------------------|-----------------------|------------------|
|--0--0--0--0--0--0--0--0--|--0--0--0--0--0--0--0--0--|--0--0--0--0--0-----0--|---3---------0---3|
|--------------------------|--------------------------|-----------------3-----|---------3--------|

|------------------------|---------------|-----------------|--------------------------|
|------------------------|---------------|-----------------|--------------------------|
|--3--0--3--0--3--5------|----7-----8----|----3-----0---0--|--0--0--0--0--0--0--0--3--|
|------------------------|---------------|-----------------|--------------------------|

|------------------------|---------------|------------------|-----------------------|
|------------------------|---------------|----5-------------|-----------------------|
|--3--0--3--0--3--5------|----7------8---|-----------7---7--|--7--7--7--7--7--7-x-x-|
|------------------------|---------------|------------------|-----------------------|

|---------------------|-----|
|---------------------|-----|
|---------------------|-----|
|--3------4------5----|-----|

Brideg riff 3
|------------|--------------------------|--------------------------|
|------------|--------------------------|--------------------------|
|------------|--------------------------|-----------------2--3--3--|
|------0--0--|--0--0--0--0--0--0--0--0--|--0--0--0--0--0-----------|

|--------------------------|-----------------------|--------------------------|
|--------------------------|-----------------------|--------------------------|
|--3--3--3--3--3--3--3--3--|--3--3--3--2-----0--0--|--0--0--0--0--0--0--0-----|
|--------------------------|-----------------------|-----------------------0--|

|-----------------------|--------------------------|---------------------|
|-----------------------|--------------------------|---------------------|
|--------0--------------|--------------------------|-----------5---------|(x2)
|--2--3-----3--2--0--0--|--0--0--0--0--0--0--0--0--|--0--0--0------0--0--|

In the last pbar play this

|--------------------------|
|--------------------------|
|--------------------0-----|
|--0--0--0--0--0--0--------|

Pre solo riff 4
|----------------------|-----------------------|----------------------|
|----------------------|-----------------------|----------------------|
|----------------------|-----------------------|--------5------7------|
|--3--5------5----5----|--3--4--5----5----5----|--3--5----------------|

|----------------------|
|-------5--------------| repeat this part 2 times
|--8---------0----0----|
|----------------------|


* Solo riff 5 part 1
play the part 1 4 times after play the second part 1 time and repeat again the part 1
|--------------------------|--------------------------|-----------------|----------------------|
|--------------------------|--------------------------|-----------------|-------5--------------|
|--0--0--0--0--0--0--0--0--|--0--0--0--0--0--0--0--0--|--0--0--5----7---|--8-------0--0--0--0--|
|--------------------------|--------------------------|-----------------|----------------------|

Solo riff part 2
|-----------------------|--------------------------|--------------------------|
|------5----3--3--3--3--|--3--3--3--3--4--4--4--4--|--4--4--4--4--5--5--5--5--|
|--8--------------------|--------------------------|--------------------------|
|-----------------------|--------------------------|--------------------------|

|--------------------------|--------------------------|
|--5--5--5--5--6--6--6--6--|--6--6--6--6--------------|
|--------------------------|--------------0--0--0--0--|
|--------------------------|--------------------------|

in the end repeat the chorus riff 4 times till the end

Tablature Legend
----------------
L - tied note
x - dead note
g - grace note
(n) - ghost note
> - accentuded note
NH - natural harmonic
AH - artificial harmonic
TH - tapped harmonic
SH - semi harmonic
PH - pitch harmonic
h - hammer on
p - pull off
b - bend
br - bendRelease
pb - preBend
pbr - preBendRelease
brb - bendReleaseBend
\n/ - tremolo bar dip
\n - tremolo bar dive
-/n - tremolo bar Release up
/n\ - tremolo bar inverted dip
/n - tremolo bar return
-\n - tremolo bar Release down
S - shift slide
s - legato slide
/ -  slide into from below or out of upwards
\ -  slide into from above or out of downwards
~ - vibrato
W - wide vibrato
tr - trill
TP - tremolo picking
T - tapping
S - slap
P - pop
< - fade in
^ - brush up
v - brush down
Suggest correction
What's this?
You can suggest a correction to this tab. Community and Mods will review your correction and vote to approve or reject it.
comments
We did not receive enough feedback on this tab! Please rate:
print report bad tab
1 2 3 4 5
guest
You may want to rate the tab now too:
select rating
Please do not post tabs as comments. Select "correction" instead!