Oops, an error
Loading. Please wait.

The Sentinel Tab

version 1
version 1

Whole song

Interactive

36,663 views 39 this week
no commentswrite comment
1 2 3 4 5
x 4
add to favorites
launch autoscroll
font size
0
reset
how to read this tab
guitar tuner
Autoscroll
slow
fast
+/-
esc
set tempo
stop
Help us to improve Ultimate-Guitar.com Take our survey!
×
JUDAS PRIEST - The Sentinel
from the "Defenders of the Faith" album 
Standard tuning

[Intro]
  Both guitars
e|-------------------------------------------------------------------------|
B|-------------------------------------------------------------------------|
G|-9-----------------------------5---------2--------------------------7--9-|
D|-9----------<4-<5-4h5p4------5---------2--------------------2-------7--9-|
A|-7--------7---------------7-5--3-----3-2-0------------------2-------5--7-|
E|-0------7--------------------------------------0-2-3-5-3-2b-0------------|
                                                 . . . . .

e|--------------------------------------------------------------------|
B|--------------------------------------------------------------------|
G|-9\----------------------------5---------2--------------------------|
D|-9\---------<4-<5-4h5p4------5---------2--------------------2-------|
A|-7\-------7---------------7-5--3-----3-2-0------------------2-------|
E|--------7--------------------------------------0-2-3-5-3-2b-0-------|
                                                 . . . . .
  K.K.
e|-----------------------------------------|-----------------------------------------|------|
B|-----------------------------------------|-----------------------------------------|------|
G|-2---------------------------------------|------------------7----10-----5----------|-2----|
D|-2---------------------------------------|------------------7----10-----5----------|-2--2-|
A|-0---------------------------------------|------------------5-----8-----3------2-3-|-0--0-|
E|-----------------------------------------|-----------------------------------------|------|
 |Glenn                                    |                                     . . |      |
e|--------------0--------------------------|--------------0--------------------------|------|
B|----------------1-----3-----1------1-----|----------------1-----3-----1------1-----|------|
G|-----2-----2--------2-----2--------------|-----2-----2--------2-----2--------------|-2----|
D|---2-----2--------0-----3-------2--------|---2-----2--------0-----3-------2--------|-2--2-|
A|-0-----0----------------------3------2-3-|-0-----0----------------------3------2-3-|-0--0-|
E|-----------------------------------------|-----------------------------------------|------|
   . . . . . .      . . . . . . . .  . . .   . . . . . .    . . . . . . . . .  . . .

  Glenn only
e|----------------------|
B|----------------------|
G|-5-5---5---5--5-5---5-|
D|-5-5---5---5--5-5---5-|
A|-----0------------0---|
E|----------------------|

[Verse 1]
e|----------------------------------------|----------------------------------------|
B|----------------------------------------|----------------------------------------|
G|-2--------------------------5-5---5-----|-2--------------------------5-5---5-----|
D|-2--------------------------5-5---5-----|-2--------------------------5-5---5-----|
A|-0--0-0-0-0-0-0-0-0-0-0-0-0-----0---0---|-0--0-0-0-0-0-0-0-0-0-0-0-0-----0---0---|
E|--------------------------------------3-|--------------------------------------3-|
      . . . . . . . . . . . .     .   .        . . . . . . . . . . . .     .   .

[Pre-Chorus]
e|-------------------------------------------------------------------|
B|-------------------------------------------------------------------|
G|-----------------------------2-------------------------5-5---5-----|
D|-7------5------7------7------2-------------------------5-5---5-----|
A|-5------7------8------5------0-0-0-0-0-0-0-0-0-0-0-0-0-----0---0---|
E|-----------------------------------------------------------------3-|
                                 . . . . . . . . . . . .     .   .

e|--------------------------------------|-------------------| 
B|--------------------------------------|-------------------|
G|----------------------7------5--------|-----<5p2--<4p2--5-|
D|-7------5------7------5------7-----6--|-2-----------------|
A|-5------7------8----------------------|-------------------|
E|--------------------------------------|-------------------|

[Chorus]
e|--------------------------------------|--------------------------------|
B|--------------------------------------|--------------------------------|
G|-2----------------------<5p2-<4p2-5---|-2------------2-----<5p2-<4p2-5-|
D|-2------------------------------------|-2------------2-2---------------|
A|-0--0-0-0-0-0-0-0-0-0-0---------------|-0--0-0-0-0---0-----------------|
E|--------------------------------------|------------3-------------------|
      . . . . . . . . . .                    . . . .

                                                   [Endings]
                                                     [Chorus 1]     [Chorus 2]
e|--------------------------------------|---------|---------------|-------------|
B|--------------------------------------|---------|---------------|-5~-8~-9~-10~|
G|-2--2-2-2-2-2-2-2-2-2---<5p2-<4p2-5---|-7~----5-|-4-5-5---5-----|-------------|
D|-3--3-3-3-3-3-3-3-3-3-3---------------|---------|---5-5---5-----|-------------|
A|--------------------------------------|---------|-------0---0---|-------------|
E|--------------------------------------|---------|-------------3-|-------------|
      . . . . . . . . .                                   .   .

[Verse 2]
e|----------------------------------------|-------------------------------------------|
B|----------------------------------------|-------------------------------------------|
G|-2--------------------------5-5---5-----|-2--------------------2-5---2--5-5---5-----|
D|-2--------------------------5-5---5-----|-2------------------5-2-5-5-2--5-5---5-----|
A|-0--0-0-0-0-0-0-0-0-0-0-0-0-----0---0---|-0--0-0-0-0-0-0-0-0-5-0-3-5-0------0---0---|
E|--------------------------------------3-|--------------------3-----3--------------3-|
      . . . . . . . . . . . .     .   .        . . . . . . . . 

[Verse 3] is the intro riff 

[Bridge]                                                     (x2)
e|--------------------------------------------------------------|
B|--------------------------------------------------------------|
G|---------7/9--------------------------------------------------|
D|---------5/7-----------<5-<6-<7~------------5h7--7---5---7--9-|
A|-0-0-0-0-------0-0-0-0--------------0-0-0-0------5---7---8--7-|
E|--------------------------------------------------------------|
   . . . .       . . . .              . . . . 

[Solo backing]                                               (x4)
e|--------------------------------------------------------------|
B|--------------------------------------------------------------|
G|-------2-------------0h2-2-----------2-----2------------------|
D|-2-----2-------------0h2-2-----------2-----2-----7---5---7--9-|
A|-0-0-0---0-0-0-0-0-0-------0-0-0-0-0---0-0---0-0-5---7---8--7-|
E|--------------------------------------------------------------|
     . .   . . . . . .       . . . . .   . .   . .

e|--------------------------------------------------------------|
B|---------------7-------------------------------9--------------|
G|-5-------------7---------------7---------------9--------------|
D|-3-----------------------------5------------------------------|
A|--------------------------------------------------------------|
E|--------------------------------------------------------------|

e|--------------------------------------------------------------|
B|--------------------------------------------------------------|
G|-------2-------------0h2-2-----------2-----2------------------|
D|-2-----2-------------0h2-2-----------2-----2-----7---5---7--9-|
A|-0-0-0---0-0-0-0-0-0-------0-0-0-0-0---0-0---0-0-5---7---8--7-|
E|--------------------------------------------------------------|
     . .   . . . . . .       . . . . .   . .   . .

e|--------------------------------------------------------------|
B|---------------7-------------------------------9--------------|
G|-5-------------7---------------7---------------9--------------|
D|-3-----------------------------5------------------------------|
A|--------------------------------------------------------------|
E|--------------------------------------------------------------|

[Interlude] (Glenn)
This bit is played with a tremolo     
effect (~7.0Hz/max intensity)         Alternately play it as
e|-----------------|                  e|-----------------|     
B|-----------------|                  B|-----------------|     
G|-------5---------|                  G|-------5-5-5-----|     
D|-7-----------5---|                  D|-7-7-7-------5-5-|      
A|-----------------|                  A|-----------------|    
E|-----------------|                  E|-----------------|   
                                         . . . . . . . .

Strings arranged for guitar
A(x02210) F(x3321x) D (xx0232) (x4)

Play the 2nd part of the prechorus
Play the chorus with the first ending 3 times
Fourth ending & coda


************************************

| h  Hammer-on
| p  Pull-off
| b  Bend
| .  Palm mute
| \  Slide down
| ~  Vibrato
| /  Slide up

************************************
Suggest correction
comments
print report bad tab
guest
You may want to rate the tab now too:
select rating
Wanna post a correction for this tab? Suggest correction