Oops, an error
Loading. Please wait.

Turbo Lover Tab

version 1
version 1

Whole song

Interactive

42,021 views 51 this week
5 commentsread comments
1 2 3 4 5
x 9
add to favorites
launch autoscroll
font size
0
reset
how to read this tab
guitar tuner
Autoscroll
slow
fast
+/-
esc
set tempo
stop
Help us to improve Ultimate-Guitar.com Take our survey!
×
---------------------------
Turbo Lover - Judas Priest
---------------------------

[Intro]
 (with an effect)
e|-------------------------------|
B|-------------------------------|
G|-------------------------------|
D|--6/13----8/16-----------------|
A|--6/13----8/16-----------------|  i dont know if it is correct
E|--4/11----6/14-----------------|

You won't hear me...    ..But you'll feel me...

e|----------------|       |----------------|
B|----3/4---------|       |----3/4---------|
G|----2/4---------|       |----2/4---------|
D|----0/2---------|       |----0/2---------|
A|----------------|       |----------------|
E|----------------|       |----------------|

  Without warning, something's dawning, listen..

e|------------------------------------------------------------------|
B|-------------------------------------------------3-x-3/5----------|
G|--7--------------5------------2------------------2-x-2/4----------|
D|--7--------------5------------2--5--2------------0-x-0/2----------| (low)
A|--5--------------3------------0--5--2-----------------------------|
E|---------------------------------3--0-----------------------------|

  Then within your senses   You'll know you're defenseless

e|-------------------------|-----------------------------------|
B|-------------------------|-----------------------------------|
G|--7---9---12--9----7--9--|--7-----9---12--9----7--9----------| (low)
D|--7---9---12--9----7--9--|--7-----9---12--9----7--9----------|
A|--5---7---10--7----5--7--|--5-----7---10--7----5--7----------|
E|-------------------------|-----------------------------------|

  How your heart beats  when you run for cover

e|-------------------------------------------------------------|
B|-------------------------------------------------3-x-3/5-----|
G|---7--------------------5--------2---------------2-x-2/4-----|
D|---7--------------------5--------2---5---2-------0-x-0/2-----|
A|---5--------------------3--------0---5---2-------------------|
E|-------------------------------------3---0-------------------|

  You can't retreat, I spy like no other.

e|-----------------------------------------|-------------------------|
B|-----------------------------------------|-------------------------|
G|--7-----------------5-----2--------------|-------------------------|
D|--7-----------------5-----2-------2------|-xx-2-2-xx-2-x-2-x2-2----| x2
A|--5-----------------3-----0-------2------|-xx-2-2-xx-2-x-2-x2-2----|
E|-------------------------------3--0------|-xx-0-0-xx-0-x-0-x0-0----|

  Then we race together     We can ride forever

e|--------------------------|--------------------------|
B|--------------------------|--------------------------|
G|--7---9--12---9--7/9------|--7---9--12---9--7/9------|     loud
D|--7---9--12---9--7/9------|--7---9--12---9--7/9------|
A|--5---7--10---7--5/7------|--5---7--10---7--5/7------|
E|--------------------------|--------------------------|

   Wrapped in horse-power, driving into fury

e|---------------------------------------------------------------|
B|---------------------------------------------------3-x-3/5-----|
G|---7----------------------5--------2---------------2-x-2/4-----| loud
D|---7----------------------5--------2---5---2-------0-x-0/2-----|
A|---5----------------------3--------0---5---2-------------------|
E|---------------------------------------3---0-------------------|

   Changing gear I pull you tighter to me.

e|--------------------------------------------------------------|
B|--------------------------------------------------------------|
G|---7---------------5--------2-------4-------7-7-7-7-7-7-7-7---|
D|---7---------------5--------2---5---4-------7-7-7-7-7-7-7-7---|
A|---5---------------3--------0---5---2-------5-5-5-5-5-5-5-5---|
E|--------------------------------3-----------------------------|

[Chorus]

I'm your turbo lover           Tell me there's no other.

e|----------------------------------|--------------------------------|
B|-----------------------------8-3--|--------------------------------|
G|-----------------------------7-2--|--------------------------------|
D|--------------------5--------5-0--|---------------------5----------|
A|-----5--7----5--7------7----------|--5--7-----5-----7------7-------|
E|----------------------------------|--------------------------------|

   I'm your turbo lover             Better run for cover.

e|--------------------------------|--------------------------------|
B|---------------------------8-3--|--------------------------------|
G|---------------------------7-2--|--------------------------------|
D|------------------5--------5-0--|---------------------5----------|
A|---5--7----5--7------7----------|--5--7----5---7---------7-------|
E|--------------------------------|--------------------------------|

We hold each other closer, as we shift to overdrive
And everything goes rushing by, with every nerve alive
We move so fast it seems as though we've taken to the sky
Love machines in harmony, we hear the engines cry.

This part up here goes with this guitar:

e|------------------|----------------|-----------------------------|
B|------------------|----------------|-----------------------------|
G|------------------|----------------|-----2-----2-----------------|
D|-----9-----9------|----10---10-----|-----2-----2-----------5-4---|
A|-----7-----7------|-----7----7-----|-0-0---0-0---0-0-0-0---5-5---|
E|-0-0---0-0-----0-0|-0-0---0-0---0-0|-----------------------------|
         x2               x2

e|-----------------|      |-------------|           |-------------|
B|-----------------|      |-------------|           |-------------|
G|-----------------|      |-------------|           |---7-7-7-7---| second
D|-----9-----9-----|x2    |---9-----7-7-| first end |---7-7-7-7---| end
A|-----7-----7-----|      |---7-----5-5-| of this   |---5-5-5-5---|
E|--0-0--0-0---0-0-|      |0-0---0-0----| part      |-------------|

[Chorus]
                                                                 ^
                                                                 |
[Solo]
                                                                 |

[Post-solo]
THEN THIS PART UP HERE AFTER SOLO WITH THE GUITAR I WROTE BEFORE

On and on we're charging to the place so many seek
In perfect synchronicity of which so many speak
We feel so close to heaven in this roaring heavy load
And then in sheer abandonment, we shatter and explode

[Chorus]
Suggest correction
comments
print report bad tab
5 comments total. Showing first comments.
+2 reply
\m/Metallica 20 Jun 05, 2009 07:59 PM

Intro( with an effect)
|-------------------------------|
|-------------------------------|
|-------------------------------|
|--6/13----8/16-----------------|
|--6/13----8/16-----------------| i dont know if it is correct
|--4/11----6/14-----------------|

Instead it should be (i think)
Intro( with flanger)
|-------------------------------|
|-------------------------------|
|-------------------------------|
|--2/4-----31------------------|
|--2/4-----31------------------| i dont know if it is correct
|--0/4-----01------------------|

+2 reply
\m/Metallica 20 Jun 05, 2009 08:00 PM

slide to the 1-1-0 sorry

+1 reply
CinderellaFan14 231 Apr 13, 2012 06:24 PM

Flawless tab! Thanks so much! And \m/ Metallica is right, use a flanger pedal for the intro!

guest
You may want to rate the tab now too:
select rating
Wanna post a correction for this tab? Suggest correction