Oops, an error
Loading. Please wait.

Turn On Your Light Tab

version 1
version 1

Intro

Interactive

6,661 views 12 this week
2 commentsread comments
1 2 3 4 5
excellent!
x 5
add to favorites
launch autoscroll
font size
0
reset
how to read this tab
guitar tuner
Tab Pro tools
  • play this tab
  • loop segment
  • change instrument
  • show fretboard
  • metronome
×
Best way to learn
"Turn On Your Light"
Autoscroll
slow
fast
+/-
esc
set tempo
stop
Contributor
This is my first tab, its not finished but im still working on it.

*Sorry on the slow updates, I have broken my wrist but rest assured I am still working on it.



Intro
E----------0--------------0-----------------2------------------------|
B--------3---3--------------1-------------3---3----------------------|
G--------------0-------0--------------2---------0--------------------|
D------2-------------2--------------2-------------------0-----0------|
A----2-------------3----------3-2-0-------------------0-----0--------|
E--0------------------------------------2-----------3-----2-----3-2--|

Verse
E----------0--------------0--------------0--------------0------|
B--------3---3----------3---3----------3---3----------3---3----|
G--------------0--------------0--------------0--------------0--|
D------2--------------2--------------2--------------2----------|
A----2--------------2--------------2--------------2------------|
E--0--------------0--------------0--------------0--------------|


E----------0-----------0--------------0-------------------------|
B--------3---3-------3---3--------------1-----------1-----------|
G--------------0-----------2--------0-------------2-------------|
D------2----------------------0---2-------------2--------2------|
A----2------------2-------------3---------3-2-0--------3--------|
E--0-------------------------------------------------------3-2--|


E----------0--------------0------|
B--------3---3----------3---3----|
G--------------0--------------0--|
D------2--------------2----------|
A----2--------------2------------|
E--0--------------0--------------|


E----------0-----------0--------------0-------------------------|
B--------3---3-------3---3--------------1-----------1-----------|
G--------------0-----------2--------0-------------2-------------|
D------2----------------------0---2-------------2--------2------|
A----2------------2-------------3---------3-2-0--------3--------|
E--0-------------------------------------------------------3-2--|


E----------0--------------0------|
B--------3---3----------3---3----|
G--------------0--------------0--|
D------2--------------2----------|
A----2--------------2------------|
E--0--------------0--------------|

Pre Chorus
E----------3------------3-------------2-------------2-----|
B--------3---3------1-3---3-------1-3---3-------1-3---3---|
G--0-0-0-------0--0---------2-0-2---------2-0-2---------2-|
D---------------------------------------------------------|
A---------------------------------------------------------|
E---------------------------------------------------------|


E----------3------------3-------------2-------------2-----|
B--------3---3------1-3---3-------1-3---3-------1-3---3---|
G--0-0-0-------0--0---------2-0-2---------2-0-2---------2-|
D---------------------------------------------------------|
A---------------------------------------------------------|
E---------------------------------------------------------|

Chorus
E--------0--------------------------------------------------|
B------3---3----------------8---------7-----------8p7-------|
G----2-------2------0-----7---7---7-----7-------7-----7-----|
D-----------------2-----------------7-----7---7---------7---|
A--2------------3-----3/5-------5-----------5-------------5-|
E-----------------------------------------------------------|


E--------0------------------------------------------------|
B------3---3----------------8---------7-----------7-------|
G----2-------2------0-----7---7---7-----7-------7---7-----|
D-----------------2-----------------7-----7---7-------7---|
A--2------------3-----3/5-------5-----------5-----------5-|
E---------------------------------------------------------|

Solo 1 (played with distortion & over the top at end of chorus and start of verse 2)
E--7-----------------------------------------------------|
B----10-8------------------------8-10-8------------------|
G---------9-9-9/11-12----12-------------9--6\--7/9\7-5---|
D---------------------10-------------------------------7-|
A---------------------------12-9-------------------------|
E--------------------------------------------------------|

Verse 2
E----------0--------------0-----------------2------------------------|
B--------3---3--------------1-------------3---3----------------------|
G--------------0-------0--------------2---------0--------------------|
D------2-------------2--------------2-------------------0-----0------|
A----2-------------3----------3-2-0-------------------0-----0--------|
E--0------------------------------------2-----------3-----2-----3-2--|


E----------0-------------0-------------0-------------0-----|
B--------3-------------3-------------3-------------3-------|
G----------------------------------------------------------|
D------2-------------2-------------2-------------2---------|
A----2-------------2-------------2-------------2-----------|
E--0-------------0-------------0-------------0-------------|


E----------0-----------0--------------0-------------------------|
B--------3---3-------3---3--------------1-----------1-----------|
G--------------0-----------2--------0-------------2-------------|
D------2----------------------0---2-------------2--------2------|
A----2------------2-------------3---------3-2-0--------3--------|
E--0-------------------------------------------------------3-2--|


E----------0--------------0------|
B--------3---3----------3---3----|
G--------------0--------------0--|
D------2--------------2----------|
A----2--------------2------------|
E--0--------------0--------------|


E----------0-----------0--------------0-------------------------|
B--------3---3-------3---3--------------1-----------1-----------|
G--------------0-----------2--------0-------------2-------------|
D------2----------------------0---2-------------2--------2------|
A----2------------2-------------3---------3-2-0--------3--------|
E--0-------------------------------------------------------3-2--|


E----------0--------------0------|
B--------3---3----------3---3----|
G--------------0--------------0--|
D------2--------------2----------|
A----2--------------2------------|
E--0--------------0--------------|


Pre Chorus
E----------3------------3-------------2-------------2-----|
B--------3---3------1-3---3-------1-3---3-------1-3---3---|
G--0-0-0-------0--0---------2-0-2---------2-0-2---------2-|
D---------------------------------------------------------|
A---------------------------------------------------------|
E---------------------------------------------------------|

Guitar 2
E---------------|
B---------------|
G-4-4/5-5/9-9\5-|
D---------------|
A---------------|
E---------------|


E----------3------------3-------------2-------------2-----|
B--------3---3------1-3---3-------1-3---3-------1-3---3---|
G--0-0-0-------0--0---------2-0-2---------2-0-2---------2-|
D---------------------------------------------------------|
A---------------------------------------------------------|
E---------------------------------------------------------|

Guitar 2
E---------------------|
B---------------------|
G-4-4/5-5/9-9\2-2h4-0-|
D---------------------|
A---------------------|
E---------------------|


Chorus
E--------0--------------------------------------------------|
B------3---3----------------8---------7-----------8p7-------|
G----2-------2------0-----7---7---7-----7-------7-----7-----|
D-----------------2-----------------7-----7---7---------7---|
A--2------------3-----3/5-------5-----------5-------------5-|
E-----------------------------------------------------------|

Guitar 2
E--------------|
B--------------|
G--7-9-9/12-14-|
D--------------|
A--------------|
E--------------|

E--------0------------------------------------------------|
B------3---3----------------8---------7-----------7-------|
G----2-------2------0-----7---7---7-----7-------7---7-----|
D-----------------2-----------------7-----7---7-------7---|
A--2------------3-----3/5-------5-----------5-----------5-|
E---------------------------------------------------------|

Guitar 2
E-----------------------------|
B---------------12-10-12p10p9-|
G--7-9-9/12-14----------------|
D-----------------------------|
A-----------------------------|
E-----------------------------|



That's all, any feedback welcome.
comments
print report bad tab
2 comments total.
+1 reply
BloodRedSkies wrote on May 11 2010, 07:12 am

this is great... :)

0 reply
ju.da.sguitar wrote on September 27 2010, 10:31 pm

thanks for this tab i really need

I want to post or [tab]
guest
You may want to rate the tab now too:
select rating
Please do not post tabs as comments. Select "correction" instead!