Oops, an error
Loading. Please wait.

Turning Circles Bass Tab

version 1
version 1

Whole song

Interactive

178 views 1 this week
no commentswrite comment
1 2 3 4 5
3 more votes to show rating
add to favorites
launch autoscroll
font size
0
reset
guitar tuner
Autoscroll
slow
fast
+/-
esc
set tempo
stop
Help us to improve Ultimate-Guitar.com Take our survey!
×
Author
Difficulty
novice
Standard Tuning
Ian Hill used a Fender Jazz Bass, and, of course, a light-medium pick to record this track.

Main Riff
G|------------------------|
D|------------------------|
A|----------------------5~|
E|--7-7---7-7---5-5---5---|

Chorus
G|-------------------------------------------------------------|
D|-------------------------------------------------------------|
A|----------------------------------------------2-2-2-2-2-2-2-2|
E|7-7-7-7-7-7-7-0-0-0-0-0-0-0-0-2-2-2-2-2-2-2-2----------------|

G|--------------------------------|
D|--------------------------------|
A|--------------------------------|
E|0-0-0-0-0-0-0-0-2-2-2-2-2-2-2-2-|

The bass in this song is pretty simple and very cool. And you can listen the bass 
playing clearly, so there are no problems with timing.
Suggest correction
Give kudos to tab author, rate the tab!
1 2 3 4 5
comments
print report bad tab
guest
You may want to rate the tab now too:
select rating
Wanna post a correction for this tab? Suggest correction