Oops, an error
Loading. Please wait.

Tyrant Tab

version 2
version 2

Whole song

Interactive

4,081 views 9 this week
no commentswrite comment
1 2 3 4 5
x 5
add to favorites
launch autoscroll
font size
0
reset
how to read this tab
guitar tuner
Autoscroll
slow
fast
+/-
esc
set tempo
stop
Help us to improve Ultimate-Guitar.com Take our survey!
×
Difficulty
intermediate
- April 1976
Band:  Judas Priest
Album: Sad Wings Of Destiny
Song:  Tyrant

Copyright (c)  CBS (1976)
Version 2.0 - (31/07/2010)


------------------------------------------------------------------------------|
------------------------------------------------------------------------------|
-----------------4--7---------------------------------------------------------|
--2h4--4-x-4--4--4--7--5h7--7-7--9--9----2--3---------------------------------|
--2h4--4-x-4--4--2--5--5h7--7-7--9--9----2--3---------------------------------|
--2----2-x-2--2--------5----5-5--7--7----0--1---------------------------------|

-----------------------------------------------------------------------------|
-----------------------------------------------------------------------------|
-----------------------------------------------------------------------------|
-2h4--------------------------2h4--------------------------------------------|
-2h4--------------------------2h4--------------------------------------------|
-2----2-2-2-2-2-2-2-2-2-2-2-2-2---2-2-2-2-2-2--------------------------------|


------------------|-----------------------------------------------------------|
------------------|-----------------------------------------------------------|
------------------|---------------2-------------------------------------------|
------------------|-------------2---4-----------------------------------------|
-------2-3-4------|-------2-3-4-----------------------------------------------|
--2--5--------0---|--2--5-----------------------------------------------------|

1st ending 2nd ending

---------------------|---------------------------------------------------------|
---------------------|---------------------------------------------------------|
------------7----6---|--6-4------4---------------------------------------------|
--4----2----7----6---|------7-6----7-6-4-6-4--6--------------------------------|
--4----2----5----4---|-----------------------7---------------------------------|
--2----0-------------|---------------------------------------------------------|
chorus 2X

-----------------------------------------------------------------------------|
-----------------------------------------------------------------------------|
----------------------------5p0---------------------7------------------------|
-----7p0---5p0---7p0---5p0------7----7p0---5p0--5---7------------------------|
---0-----0-----0-----0-------------0-----0------5---5------------------------|
------------------------------------------------3----------------------------|

-----------------------------------------------------------------------------|
-----------------------------------------------------------------------------|
----------------------------5p0----------------------------------------------|
-----7p0---5p0---7p0---5p0------7----7p0---5p0---5p0--4p0--------------------|
---0-----0-----0-----0-------------0-----0-----0-----0-----5-6-7----5-4-3----|
-----------------------------------------------------------------------------|


------------------------|------------------------|-------------------------------|
------------------------|------------------------|-------------------------------|
--4-----------7-----2---|--4---------------------|-------------4---4-4-4-4-4-----|
--4-----5-----7-----2---|--4-----5-----7-----4---|--5-----4----4---4-4-4-4-4-----|
--2-----5-----5-----0---|--2-----5-----7-----4---|--5-----4----2---2-2-2-2-2-----|
--------3---------------|--------3-----5-----2---|--3-----2----------------------|
1st end 2nd end


----------|--------------------------|-------------------------------------------|
----------|-------------------8--10--|-------------------------------------------|
----------|--7/9--9---9--9----7---9--|-------------------5--7--------------------|
----------|--7/9--9---9--9----5---7--|--5/7--7---7--7----5--7--------------------|
----------|--5/7--7-7-7--7-7---------|--5/7--7---7--7----3--5--------------------|
----------|--------------------------|--3/5--5-5-5--5-5--------------------------|
pre solo alternate riffs break under solo

--------------------------------------|
--------------------------------------|
--------------------------------------|
----4-3-------------------------------|
-2-----------5------------------------|
--------3-2-----9/------------break---|

-----------------------------|---------------------|------------------------|
-----------------------------|---------------------|------------------------|
-----------------------------|---4---4-------------|------------------------|
---4-----------4---4---------|---4---4-------------|------------------------|
---4-----------4---4---------|-0p2-0p2-2-2-2-2-2-2-|--2-0---0-2-0-----------|
-0p2-2-2-2-2-0p2-0p2-2-2-2-2-|---------------------|------2-------3-2-------|
 part A part B  pre solo#2 riff


-------------------------------------------------------------------------------|
-------------------------------------------------------------------------------|
--2------7-----6---6---6---6---6---6-------------------------------------------|
--2------7-----6---6---6---6---6---6-------------------------------------------|
--0------5-----4---4---4---4---4---4-------------------------------------------|
-------------------------------------------------------------------------------| rhythm

under solo   then play pre solo riff part B 8? times
 ----------------------------------|
-----------------------------------|
--------2--------------------------|
--5-----2--------------------------|
--5-----0--------------------------|
--3--------------------------------| then play variation of part B


--------------------------------------------------------------|
--------------------------------------------------------------|
--------2-----------------------------------------------------|
--5-----2-------4-----5-----5-------5----------5--------------|
--5-----0----2-----2-----2------3-------3---4-----4-----------|
--3-----------------------------------------------------------|

then play part A variation 4 times to close out solo  Not going to tab the solo,
but it isn't too hard
Suggest correction
comments
print report bad tab
guest
You may want to rate the tab now too:
select rating
Wanna post a correction for this tab? Suggest correction