Oops, an error
Loading. Please wait.

United Bass Tab

version 1
version 1

Whole song

Interactive

3,491 views 3 this week
no commentswrite comment
1 2 3 4 5
accurate
x 3
add to favorites
launch autoscroll
font size
0
reset
guitar tuner
Autoscroll
slow
fast
+/-
esc
set tempo
stop
Help us to improve Ultimate-Guitar.com Take our survey!
×
Author
Difficulty
intermediate
                                  United - Judas Priest


Tabbed By : Nick Johnson


   Intro
G|------------|------------|-----------|-----------|
D|------------|------------|-----------|-----------|
A|------------|------------|-----------|-----------| x2 and play verse once
E|-0-2--x-x-2-|-0-2--x-x-2-|-5-2-x-x-2-|-5-2-x-x-2-|

  Verse
G|------------------|--------------------|
D|------------------|--------------------|
A|------------------|--------------------|
E|-0-2-2-2-2--2-2-2-|-5-2-2-2-2---2-2-2--|

  Pre-Chorus
G|------------|
D|------------|
A|-0------2-4-|
E|------------|

  Chorus

  United, United, United  we stand
G|----------------------------|
D|----------------------------|
A|---------4-------2-------4--|
E|--2-------------------------|

  United  we never shall fall
G|----------------------------|
D|----------------------------|
A|------------4----------2----|
E|-2--------------------------|

===========================================================================
Suggest correction
Give kudos to tab author, rate the tab!
1 2 3 4 5
comments
print report bad tab
guest
You may want to rate the tab now too:
select rating
Wanna post a correction for this tab? Suggest correction