Oops, an error
Loading. Please wait.

Victim Of Changes Bass Tab

version 2
version 2

Whole song

  • Notes are accurate. It's based on Sad Wings of Des... Show more
25 views 1 this week
no commentswrite comment
1 2 3 4 5
3 more votes to show rating
add to favorites
launch autoscroll
font size
0
reset
guitar tuner
Autoscroll
slow
fast
+/-
esc
set tempo
stop
Help us to improve Ultimate-Guitar.com Take our survey!
×
Author
Difficulty
intermediate
About this tab version
Notes are accurate. It's based on Sad Wings of Destiny original version and a live version. Was this info helpful? Yes No
[Intro]
G|----------------------------------|
D|----------------------------------|
A|---7-----7-------7-5~--5----------| x4
E|-0---0-0---0-0-0---------7-6-5-3--|

G|---------------------------------------------|
D|---------------------------------------------|
A|-0--0-0-3-0--3-3-5~----0--0-0-3-0--3~--3-3---|
E|-------------------------------------------3~|

G|----------------------------------|
D|----------------------------------|
A|---7-----7-------7-5~--5----------| x2
E|-0---0-0---0-0-0---------7-6-5-3--|

G|-9-7-----------------------------------|
D|-----9-8-7-----------------------------|
A|-----------10-9-7-7-6-5----------------|
E|------------------------7-6-5---3-2-0~~|

[Verse 1]
G|----------------------------------|------------------------------------|
D|----------------------------------|------------------------------------|
A|---7-----7-------7-5~--5----------|---7-----7-------7-5~--5------------|
E|-0---0-0---0-0-0---------7-6-5-3--|-0---0-0---0-0-0---------7-6-5-3-0~~|

G|----------------------------------|
D|----------------------------------|
A|---7-----7-------7-5~--5----------| x2
E|-0---0-0---0-0-0---------7-6-5-3--|

G|---------------------------------------------|
D|---------------------------------------------|
A|-0--0-0-3-0--3-3-5~----0--0-0-3-0--3~--3-3---|
E|-------------------------------------------3~|

G|----------------------------------|
D|----------------------------------|
A|---7-----7-------7-5~--5----------| x2
E|-0---0-0---0-0-0---------7-6-5-3--|

G|---------------------------------------------|
D|---------------------------------------------|
A|-0--0-0-3-0--3-3-5~----0--0-0-3-0--3~--3-3---|
E|-------------------------------------------3~|

G|----------------------------------|
D|----------------------------------|
A|---7-----7-------7-5~--5----------| x2
E|-0---0-0---0-0-0---------7-6-5-3--|

G|------4-44------4-44------4-44------5-------4--|
D|-----------------------------------5-5-----4-4-|
A|-2-22------2-22------2-22-------3--------2-----|
E|-----------------------------------------------|

G|----------------------------------|----------------|
D|----------------------------------|----------------|
A|---7-----7-------7-5~--5----------|---7-----7---5~~|
E|-0---0-0---0-0-0---------7-6-5-3--|-0---0-0--------|

[After Verse 1]
G|----------------------------------|
D|----------------------------------|
A|----------------------------------| x5
E|-7-5-0-0--5-3-0-0--3-2-0-0--3-2-0-|

G|--------------------------------------|
D|--------------------------------------|
A|--------------------------------------|
E|-7-5-0-0--5-3-0-0--3-2-0-0--3-2-3-2-0~|

[Verse 2]
G|----------------------------------|------------------------------------|
D|----------------------------------|------------------------------------|
A|---7-----7-------7-5~--5----------|---7-----7-------7-5~--5------------|
E|-0---0-0---0-0-0---------7-6-5-3--|-0---0-0---0-0-0---------7-6-5-3-0~~|

G|----------------------------------|
D|----------------------------------|
A|---7-----7-------7-5~--5----------| x2
E|-0---0-0---0-0-0---------7-6-5-3--|

G|---------------------------------------------|
D|---------------------------------------------|
A|-0--0-0-3-0--3-3-5~----0--0-0-3-0--3~--3-3---|
E|-------------------------------------------3~|

G|----------------------------------|
D|----------------------------------|
A|---7-----7-------7-5~--5----------| x2
E|-0---0-0---0-0-0---------7-6-5-3--|

G|---------------------------------------------|
D|---------------------------------------------|
A|-0--0-0-3-0--3-3-5~----0--0-0-3-0--3~--3-3---|
E|-------------------------------------------3~|

G|----------------------------------|
D|----------------------------------|
A|---7-----7-------7-5~--5----------| x2
E|-0---0-0---0-0-0---------7-6-5-3--|

G|------4-44------4-44------4-44------5-------4--|
D|-----------------------------------5-5-----4-4-|
A|-2-22------2-22------2-22-------3--------2-----|
E|-----------------------------------------------|

G|----------------------------------|----------------|
D|----------------------------------|----------------|
A|---7-----7-------7-5~--5----------|---7-----7---5~~|
E|-0---0-0---0-0-0---------7-6-5-3--|-0---0-0--------|

You 'bin... part:
G|-----------------------|
D|--77---55---44---5-----| x2
A|-------------------3~--|
E|-----------------------|

G|-----------------------|
D|-----------------------|
A|--77---55---44---5-----| x2
E|-------------------3~--|

Then
G|--------------------------------------------------------|
D|--------------------------------------------------------|
A|--h7----h7~-77--4h5-55-5~-55--3h4-44-4~-44--5p----------| x8
E|-0---0-0--------------------------------------3-33-3~-33|

G|-------------------------------|
D|-------5p--------------5p------|
A|5h7-77---7-77--5h7-77----7--5h7| x4
E|-------------------------------|

G|----------------------------------------------------|
D|----------------------------------------------------|
A|-5-2-------------------3--3--2-------------2~/----7~|
E|-----3-5--3-2-2-3-2-------------5--3--5--2----------|

Play it quickly after the ringing E note...5
G|97--7----------|
D|---9---9-8-7---|
A|-------------7~|
E|---------------|

Rest while guitar plays the riff two times... Then:
G|---------------------------------------|
D|---------------------------------------|
A|5/--7~--7\--5~--5/--7~--7/--10~-10\--5-|
E|---------------------------------------|

Once she was wonderful...:
G|-------9~--9\-7-----------9~\---------|
D|--------------------------------5---7-|
A|-5/-7-----------5---5/-7--------------| x13
E|------------------------------3---5---|

G|-7/--9~--9\--7~--7/--9~-9/--12~-12\--7~| 
D|-7/--9~--9\--7~--7/--9~-9/--12~-12\--7~|
A|-5/--7~--7\--5~--5/--7~-7/--10~-10\--5~| x6
E|---------------------------------------|

[Ending]
G|----------------------------------|
D|----------------------------------|
A|---7-----7-------7-5~--5----------| x4
E|-0---0-0---0-0-0---------7-6-5-3--|

G|----------------------------------|
D|----------------------------------|
A|----------------------------------|
E|-7-5-0-0--5-3-0-0--3-2-0-0--3-2-0-|

G|--------------------------------------------------------|
D|--------------------------------------------------------|
A|----------------------------------------5~---3~--2~-----|
E|-7-5-0-0--5-3-0-0--3-2-0-0--3-2-0-2-3~------------------|

G|-9-|
D|-9-|
A|-7/|
E|---|

************************************

| ~  Vibrato
| h  Hammer-on
| p  Pull-off
| /  Slide up
| \  Slide down

************************************

Doubts? Send me a message on feedsoal@outlook.com
Suggest correction
Give kudos to tab author, rate the tab!
1 2 3 4 5
comments
print report bad tab
guest
You may want to rate the tab now too:
select rating
Wanna post a correction for this tab? Suggest correction