Oops, an error
Loading. Please wait.

Victim Of Changes Tab

version 2
version 2

Whole song

56,867 views 75 this week
4 commentsread comments
1 2 3 4 5
x 12
add to favorites
launch autoscroll
font size
0
reset
how to read this tab
guitar tuner
Autoscroll
slow
fast
+/-
esc
set tempo
stop
Help us to improve Ultimate-Guitar.com Take our survey!
×
Author
Band:  Judas Priest
Album: Unleashed In The East
Song:  Victim Of Changes

Copyright (c)  (CBS) (1979)
Version 1.0 - (24/03/05)

Tunning E A D G B E
 

[Intro]
                                                          
  Guitar 1

e|-19p15p0-19p15p0-19p15p0-19p15p0-19p15p0-19p15p0-19p15p0-19p15p0---|
B|-------------------------------------------------------------------|
G|-------------------------------------------------------------------|
D|-------------------------------------------------------------------|
A|-------------------------------------------------------------------|
E|-------------------------------------------------------------------|
 [
 [Guitar 2
 [
e|-15p12p0-15p12p0-15p12p0-15p12p0-15p12p0-15p12p0-15p12p0-15p12p0---|
B|-------------------------------------------------------------------|
G|-------------------------------------------------------------------|
D|-------------------------------------------------------------------|
A|-------------------------------------------------------------------|
E|-------------------------------------------------------------------|

   Guitar 1
      h   h   h   h   h   h   h   h   h   h   h   h   h   h   h   h
e|-0-17-20-0-17-20-0-17-20-0-17-20-0-17-20-0-17-20-0-17-20-0-17-20---|
B|-------------------------------------------------------------------|
G|-------------------------------------------------------------------|
D|-------------------------------------------------------------------|
A|-------------------------------------------------------------------|
E|-------------------------------------------------------------------|
 [
 [Guitar 2
 [   h   h   h   h   h   h   h   h   h   h   h   h   h   h   h   h
e|-0-14-17-0-14-17-0-14-17-0-14-17-0-14-17-0-14-17-0-14-17-0-14-17---|
B|-------------------------------------------------------------------|
G|-------------------------------------------------------------------|
D|-------------------------------------------------------------------|
A|-------------------------------------------------------------------|
E|-------------------------------------------------------------------|

  Guitar 1

e|-19p15p0-19p15p0-19p15p0-19p15p0-19p15p0-19p15p0-19p15p0-19p15p0---|
B|-------------------------------------------------------------------|
G|-------------------------------------------------------------------|
D|-------------------------------------------------------------------|
A|-------------------------------------------------------------------|
E|-------------------------------------------------------------------|
 [
 [Guitar 2
 [
e|-15p12p0-15p12p0-15p12p0-15p12p0-15p12p0-15p12p0-15p12p0-15p12p0---|
B|-------------------------------------------------------------------|
G|-------------------------------------------------------------------|
D|-------------------------------------------------------------------|
A|-------------------------------------------------------------------|
E|-------------------------------------------------------------------|

  Guitar 1
e|-17p14p0-17p14p0-17p14p0-17p14p0-17p14p0-17p14p0-17p14p0-17p14p0---|
B|-------------------------------------------------------------------|
G|-------------------------------------------------------------------|
D|-------------------------------------------------------------------|
A|-------------------------------------------------------------------|
E|-------------------------------------------------------------------|
 [
 [Guitar 2
 [
e|-14p11p0-14p11p0-14p11p0-14p11p0-14p11p0-14p11p0-14p11p0-14p11p0---|
B|-------------------------------------------------------------------|
G|-------------------------------------------------------------------|
D|-------------------------------------------------------------------|
A|-------------------------------------------------------------------|
E|-------------------------------------------------------------------|

   Guitar 1
                    |-------PM---------]            
e|-17p15p0-12p10p0-----------------------|
B|-----------------12p10p0-10p8p0-8p7p0--|
G|---------------------------------------|
D|---------------------------------------|
A|---------------------------------------|
E|---------------------------------------|
 [
 [Guitar 2
 [
e|-17p15p0-12p10p0-----------------------|
B|-----------------12p10p0-10p8p0-8p7p0--|
G|---------------------------------------|
D|---------------------------------------|
A|---------------------------------------|
E|---------------------------------------|

  Guitar 1
   |-----------PM----------------]     ph    ph
e|--------------------------------------------------|
B|-8p7p--8p7p--8p7p--8p7p--8p7p--8p7p--8p7p--8p7p---|
G|-----0-----0-----0-----0-----0-----0-----0-----0--|
D|--------------------------------------------------|
A|--------------------------------------------------|
E|--------------------------------------------------|
 [
 [Guitar 2
 [
e|--------------------------------------------------|
B|--------------------------------------------------|
G|-9p7p0-9p7p0-9p7p0-9p7p0-9p7p0-9p7p0-9p7p0-9p7p0--|
D|--------------------------------------------------|
A|--------------------------------------------------|
E|--------------------------------------------------|


   Both guitars
   ph
e|----------------------------------|
B|----------------------------------|
G|-9p7------------------------------|
D|-----9-8-7------------------------|
A|-----------10-9-7-7-6-5-----------|
E|------------------------7-6-5\3\--|

 Main Riff

  
                     |--PM--]
e|-------------------------------|
B|-------------------------------|
G|-------------------------------|
D|-7/9-----7/9-----9\7-----------|
A|-5/7-----5/7-----7\5-----------|
E|-----0-0-----0-0-----7-6-5-3p--| Rpt 3 X
 

[Bridge]

     [PM]        [PM]      [PM]
e|------------------------------------------|
B|------------------------------------------|
G|-2---------5--5---/7---2---------5--5-----|
D|-2---------5--5---/7---2---------5--5--5--|
A|-0-0-0-3p0-3--3-0-/5---0-0-0-3p0-3--3--5--|
E|---------------------------------------3--|

 Rpt Main Riff 2 X

e|----------------------------------|
B|----------------------------------|
G|-9p7------------------------------|
D|-----9-8-7------------------------|
A|-----------10-9-7-7-6-5-----------|
E|------------------------7-6-5\3\--|


[Verse]

                      h
e|------------------------------|
B|------------------------------|
G|--------------------12p9------|
D|------------------------------|
A|-2--------------(2)-----------|
E|-0--------------(0)-----------|

 Rpt Main Riff 2 X

                        h
e|------------------------------|
B|------------------------------|
G|------------------------------|
D|--------------------0-2p0-----|
A|-2--------------(2)-----------|
E|-0--------------(0)-----------|

 Rpt Main Riff 2 X
 Rpt Bridge
 Rpt Main Riff 2 X
 Rpt Bridge
 Rpt Main Riff 2 X


[Chorus]

e|----------------------------------------|
B|----------------------------------------|
G|----------------------------------------|
D|---4-4-4----4----4---4-4-4----5---3---/-|
A|-0-2-2-2-00-2-00-2-0-2-2-2-00-3---2---/-|
E|----------------------------------------|

 Rpt Main Riff once

e|------------------|
B|------------------|
G|------------------|
D|-7/9----7/9----7--|
A|-5/7----5/7----5--|
E|-----00-----00----|
                                h        h

e|E-------------------------------------------------------------------|
B|--------------10fb-10-8-10-8-----8---------------------------------|
G|-----------------------------7-9---9--7-9p7---7----------------7---|
D|--------------------------------------------9---9p7-9p7----7-9-----|
A|--------------------------------------------------------10-------7-|
E|-------------------------------------------------------------------|

   Guitar 1
e|-------------------------------------------------------------------|
B|-------------------------------------------------------------------|
G|-9----------9-----------9---------7----------7----------7----------|
D|-9----------9-----------9---------7----------7----------7----------|
A|-7----------7-----------7---------5----------5----------5----------|
E|-------------------------------------------------------------------|
  Guitar 2

e|E-------------------------------------------------------------------|
B|-------------------------------------------------------------------|
G|-------------------------------------------------------------------|
D|-------------------------------------------------------------------|
A|-------------------------------------------------------------------|
E|-7p5p0-00-5p3p0-00-3p2p0-00-3p2p0-7p5p0-00-7p5p0-00-3p5p0-00-3p2p0-|

   Guitar 1
e|-------------------------------------------------------------------|
B|-------------------------------------------------------------------|
G|-7----------7-----------7---------2--------------4-----------------|
D|-7----------7-----------7---------2--------------4-----------------|
A|-5----------5-----------5------12\0--------------2-----------------|
E|-------------------------------------------------------------------|
  Guitar 2

e|E-------------------------------------------------------------------|
B|-------------------------------------------------------------------|
G|-------------------------------------------------------------------|
D|-------------------------------------------------------------------|
A|-------------------------------------------------------------------|
E|-7p5p0-00-5p3p0-00-3p2p0-00-3p2p0-7p5p0-00-7p5p0-00-3p5p0-00-3p2p0-|

 Both guitars (Riff A)

e|-------------------------------------------------------------------|
B|-------------------------------------------------------------------|
G|-------------------------------------------------------------------|
D|-------------------------------------------------------------------|
A|-------------------------------------------------------------------|
E|7p5p0-00-5p3p0-00-3p2p0-00-3p2p0-7p5p0-00-7p5p0-00-3p5p0-00-3p2p0-2|

 Rpt Verse and Chorus

                                h          h
e|---------------------------------------------------------|
B|-8fb--8fb-8\7\5---5\4-------1-3p1------3-1p0-------------|
G|----------------7-----7\5\2-------2-0-2------2p0---------|
D|-------------------------------------------------2p0-----|
A|-----------------------------------------------------3---|
E|---------------------------------------------------------|

   Guitar 1                         ~~~~~~
e|-------------------------------------------|
B|-------------------------------------------|
G|-------------------------------------------|
D|-2--2---------------------------2----------|
A|-0--0------5--5------4--4---------3----/---|
E|-----------3--3------2--2------------------|
 [Guitar 2                         ~~~~~~
-------------------------------------------|
-------------------------------------------|
-9--9--------------------------------------|
-7--7------12-12-----11-11------5----------|
-0--0------10-10-----9--9---------3----/---|
-------------------------------------------| Rpt

   Guitar 1                        ~~~~~~
e|-------------------------------------------|
B|-------------------------------------------|
G|-------------------------------------------|
D|-7-/9------6-/7------5-/6------------------|
A|-5-/7------4-/5------3-/4------2-----------|
E|---------------------------------3---------|
 [Guitar 2                        ~~~~~~
-------------------------------------------|
-------------------------------------------|
-------------------------------------------|
-9--9------7--7------6--6------------------|
-7--7------5--5------4--4------------------|
-------------------------------7\3---------| Rpt

 Backing for guitar solo

e|------------------------------------------------|
B|------------------------------------------------|
G|------------------------------------------------|
D|-7-/9-9-9-9---6-/7-7-7-7---4-/6-6-6-6--4--------|
A|-5-/7-7-7-7---4-/5-5-5-5---2-/4-4-4-4--2-5--(5)-|
E|-----------------------------------------3--(3)-| Rpt 10 X

   Guitar 1
e|-----------------------------------|
B|-----------------------------------|
G|-----------------------------------|
D|-7/9-----5-------7/9-----5---------|
A|-5/7-------7-----5/7-------7p5-7---|
E|-----------------------------------|
 [Guitar 2
-----------------------------------|
-----------------------------------|
-----------------------------------|
-----------------------------------|
-----------------------------------|
-----0-0-----0-0-----0-0-----0-0---| Rpt 4 X

   Guitar 1
e|--------------------------------------------------------------|
B|--------------------------------------------------------------|
G|--------------------------------------------------------------|
D|-------2---------------5--5--4--2-----2-----4-------(4)-------|
A|-5-----0------4--------3--3--2--0--5--0--4--2-------(2)-------|
E|---7-3----3-2-2--2-3p2-------------3-----2--------------------|
 [Guitar 2
--------------------------------------------------------------|
--------------------------------------------------------------|
--------------------------------------------------------------|
-------2---------------2--7-----5--7--7--2--4-------(4)-------|
-------0------4--------0--5--5--3--5--5--0--2-------(2)-------|
--------------2--------------3--------------------------------|

  Lead fill                                w/delay
e|--------------------------------------12----------------------|
B|-----------------------------------12-------------------------|
G|------------------------------9-12----------------------------|
D|-5p4-5/7p5-7/9p7-9/10p9-10/12---------------------------------|
A|--------------------------------------------------------------|
E|--------------------------------------------------------------|

  Clean guitar
e|------------------------------------------|
B|------------------------------------------|
G|------------------------------------------|
D|-7/9------9\7------7/9------9/12--12\7----|
A|-5/7------7\5------5/7------7/10--10\5----|
E|------------------------------------------|Rpt 16 X
  Rpt 2 X with distortion

  Backing for guitar solo
e|------------------------------------------|
B|------------------------------------------|
G|------------------------------------------|
D|-7/9---9--9\7---7--7/9---9--9/12--12\7----|
A|-5/7---7--7\5---5--5/7---7--7/10--10\5----|
E|------------------------------------------|Rpt 4 X


 Rpt Main Riff 4 X
 Rpt Riff A


[Ending]
 
                                                         Feedback
e|-------------------------------------------------------------------|
B|-------------------------------------------------------------------|
G|-------------------------------------------------------------------|
D|----------\7----7---\5----5---\4----4------------------------------|
A|-5----5---\5----5---\3----3---\2----2------------------------------|
E|-3----3------------------------------------------------------------|

e|-----|
B|-----|
G|-----|
D|-2\--|
A|-2\--|
E|-0---|



************************************

.  - palm mute           /  - slide up to
\  - slide down to       ~  - vibrato
h  - hammer on           b  - Bend
p  - pull off            Suffixes for bend
t  - tap                 f  - full bend    h - half bend
ph - pinched harmonic    q  - quarter bend t - tap bend
*  - see comment         ^  - Hold bend    r release bend
x  - Stuccatto           ~  - vibrato bend
,  - slight palm mute    () - ghost note, sustained note
"  - tremolo note        <> - Trill

************************************
Suggest correction
comments
print report bad tab
4 comments total. Showing first comments.
+2 reply
SomeKindOfKirk 55 Mar 22, 2006 10:51 AM

SOLO'S MISSING :(

0 reply
harriett 10 Jan 26, 2010 03:27 PM

Fantastic this really helped very accurate i gave you a five star; you deserve it. But for the beggining higher fret work I used the guitar pro tab it sounded more accurate to me, but I could be completely wrong so dont fret (no pun intended). Thank you very much great work. Keep rocking.
Harriett.

0 reply
SHOULDNOTBE 10 Oct 10, 2010 03:01 PM

Great job. I had an old buggar try and show me this years ago and I couldn't quite get it. He had to learn the old way by moving the needle back and forth. Thank god for the internet and tabs. This made it much easier. Thanks. 5 stars. I prefer when there aren't solos with these tabs so that it forces you to put your own spin and flavour into it.
Cheers.

guest
You may want to rate the tab now too:
select rating
Wanna post a correction for this tab? Suggest correction