Oops, an error
Loading. Please wait.

Visions Tab

1,094 views 1 this week
no commentswrite comment
1 2 3 4 5
2 more votes to show rating
add to favorites
launch autoscroll
font size
0
reset
how to read this tab
guitar tuner
Autoscroll
slow
fast
+/-
esc
set tempo
stop
Help us to improve Ultimate-Guitar.com Take our survey!
×
Author
Difficulty
intermediate
Judas priest 
SONG :visión
Album : nostradamus 
2008 
Transcribed by :ju.da.s

This song i did it four months ago but I cant do it in guitar pro
 meanwhile this tab , help you the necessary to play this song thank’s
Guitar  1

Tuning = E


 Main riff
E||----------|----------------------------------|
B||----------|----------------------------------|
G||----------|----------------------------------|
D||-----5----|---5------------------------------|
A||-----5----|---5-----------3/5--5--3-3-5-5-6--| (x4)
E||-----3----|---3---3-3-3-3-1/3--3--1-1-3-3-4--|

Verse  second part
Riff 1

E||--------------------------------|--------------------------------|
B||--------------------------------|--------------------------------|
G||--------------------------------|--------------------------------|
D||--3/5---------------------------|--------------------------------|
A||--3/5-----------3/5--5--3-3/-5--|--2/3-----------2/3--3--2-2/-3--| 
E||--1-3---3-3-3-3-1/3--3--1-1-/3--|--0/1---1-1-1-1-0/1--1--0-0-/1--|

Riff 2
E||--------------------------------------------|
B||--------------------------------------------|
G||--------------------------------------------|
D||--------------------------------------------|
A||--------------------------------------------| 
E||-1-3-3-3--1-3-3-3-1-3-3-3-1-3-3-3-3-3-3-3---|

Repeat  riff 1

chorus
E|-----------|----------------|
B|-----------|----------------|
G|--------3--|------5---------| (x2)
D|---5----3--|--3---5---------|
A|---5----1--|--3---3---------| 
E|---3-------|--1------0—-1-2-|

Repeat the riff 2

Riff 2
E||--------------------------------------------|
B||--------------------------------------------|
G||--------------------------------------------|
D||--------------------------------------------|
A||--------------------------------------------| 
E||-1-3-3-3--1-3-3-3-1-3-3-3-1-3-3-3-3-3-3-3---|

Intro 
Silent
Riff 1(x2) 
Riff 2(x2)
Riff 1(x4)
Riff 2(x2)
Chorus (x2)
Riff 2 
Repeat the same


all contribution's of this song let me know in metalgod.jp@4hotmail.com
Suggest correction
Give kudos to tab author, rate the tab!
1 2 3 4 5
comments
print report bad tab
guest
You may want to rate the tab now too:
select rating
Wanna post a correction for this tab? Suggest correction