Oops, an error
Loading. Please wait.

Whats My Name Tab

version 1
version 1

Whole song

Interactive

186 views 1 this week
no commentswrite comment
1 2 3 4 5
3 more votes to show rating
add to favorites
launch autoscroll
font size
0
reset
how to read this tab
guitar tuner
Autoscroll
slow
fast
+/-
esc
set tempo
stop
Help us to improve Ultimate-Guitar.com Take our survey!
×
Difficulty
intermediate
whats my name
judas priest
from album: demolition

kk and glenn guitars
intro
GUITAR 1
E-0-3-0-5-0-3-0-3-0-3-0--0-3-0-5-0-3-|
B------------------------------------|
G------------------------------------|
D------------------------------------|
A------------------------------------|
E------------------------------------|

GUITAR 2
E-----------------------|
B-----------------------|
G-----------------------|
D-2-2-2-2-2-2-2-2-2-2-2-|
A-2-2-2-2-2-2-2-2-2-2-2-|
E-0-0-0-0-0-0-0-0-0-0-0-|

verse
(BOTH GUITARS?)
E-----------------------------------|
B-----------------------------------|
G--------------------------2----2---|
D-2-5-2-2-2-5-2-2-5-2-5-2--2--5-2-5-|
A-2-5-2-2-2-5-2-2-5-2-5-2--0--5-0-5-|
E-0-3-0-0-0-3-0-0-3-0-3-0-----3---3-|

pre-chorus
E--------------------------------------------|
B--------------------------------------------|
G--------------------------------------------|
D--------------------------------------------|
A-2-2-2--2-2-2-2--5-5-5-5-5-5--7-8-8-8-7-5-2-|
E-0-0-0--0-0-0-0--3-3-3-3-3-3--5-6-6-6-5-3-0-| 2 TIMES

chorus
E-------------------------------------|
B-------------------------------------|
D-------------------------------------|
G-------------------------------------|
A-2-5-2-7-2-5-2-5-2-5-2-4-2-5-2-7-2-5-|
E-0-3-0-5-0-3-0-3-0-3-0-2-0-3-0-5-0-3-| TWO TIMES

then...
GUITAR 2
E-0-3-0-5-0-3-0-3-0-3-0-2-0-3-0-5-0-3-|
B-------------------------------------|
G-------------------------------------|
D-------------------------------------|
A-------------------------------------|
E-------------------------------------|


i dont know the solo

ENJOY!!!

TABLATURE LEGEND
----------------
 h   - hammer-on
 p   - pull-off
 b   - bend
 pb  - pre-bend
 r   - bend release (if no number after the r, then release immediately)
 /\  - slide into or out of (from/to "nowhere")
 s   - legato slide
 S   - shift slide
  - natural harmonic
[n]  - artificial harmonic
n(n) - tapped harmonic
 ~   - vibrato
 tr  - trill
 T   - tap
 TP  - trem. picking
 PM  - palm muting
\n/  - tremolo bar dip; n = amount to dip
 \n  - tremolo bar down
 n/  - tremolo bar up
/n\  - tremolo bar inverted dip
 =   - hold bend; also acts as connecting device for hammers/pulls
 <>  - volume swell (louder/softer)
 x   - on rhythm slash represents muted slash
 o   - on rhythm slash represents single note slash
 |  - bar
||  - double bar
||o - repeat start
o|| - repeat end
*|  - double bar (ending)
 :  - bar (freetime)
 $  - Segno
Suggest correction
Give kudos to tab author, rate the tab!
1 2 3 4 5
comments
print report bad tab
guest
You may want to rate the tab now too:
select rating
Wanna post a correction for this tab? Suggest correction