Oops, an error
Loading. Please wait.

Worth Fighting For Bass Tab

version 1
version 1

Whole song

Interactive

3,385 views 3 this week
no commentswrite comment
1 2 3 4 5
please rate
add to favorites
launch autoscroll
font size
0
reset
guitar tuner
Autoscroll
slow
fast
+/-
esc
set tempo
stop
Help us to improve Ultimate-Guitar.com Take our survey!
×
Author
I cant find a tab for this song anywhere for the bass.  It is a fairly easy song just 
for the changes.  I am not too sure on the breakdown but it is going to be pretty close.  
fun!!!

Judas Priest-Worth Fighting For
Angel of Retribution
4/4
Intro
G ---------------------------------|
D ---------------------------------|   X2
A ---------------------------------|
E -0-0-0-0-0-0-0-0-0-0-0-0-0-0-0-0-|

Guitars enter at 0:08

G ---------------------------------------------------------------|
D ---------------------------------------------------------------|
A -----------------3-3-3-3-3-3-3-3---------------0-0-0-0-0-0-0-0-| X2
E -0-0-0-0-0-0-0-0----------------3-3-3-3-3-3-3-3----------------|

Repeat Intro again at 0:24

Verse 0:32
"You said I could never find...."

G ----------------------------------------------------------------|
D ----------------------------------------------------------------|
A --------------------------------3-3-3-3-3-3-3-3-0-0-0-0-0-0-0-0-|
E 0-0-0-0-0-0-0-0-0-0-0-0-0-0-0-0---------------------------------|

G -----------------------------------------------------------------|
D -----------------------------------------------------------------|
A -----------------------------------------------------------------|
E 0-0-0-0-0-0-0-0-0-0-0-0-0-0-0-0-5-5-5-5-5-5-5-5-5-5-5-5-5-5-5-5--|

Repeat the verse twice

Chorus comes in on 1:04
"So I wonder on..."

G ----------------------------------------------------------------|
D ----------------------------------------------------------------|
A ------------------------------------------------5-5-5-5-5-5-5-5-|
E 0-0-0-0-0-0-0-0-0-0-0-0-0-0-0-0-3-3-3-3-3-3-3-3-----------------|

Repeat that X2

Repeat Intro 1:20
Repeat Verse 1:28
Repeat Chorus 2:00
Repeat Intro 2:16

**Breakdown 2:24 (Im not 100% on this but it is close; alternate between E,G,and A)**  
of do some improvising

Guitar Solo play the Chorus 2:40

Bridge 2:56
"Night road leads me to a town of ghosts..."

G ----------------------------------------------------------------|
D ----------------------------------------------------------------|
A 3-3-3-3-3-3-3-3-0-0-0-0-0-0-0-0---------------------------------|
E --------------------------------0-0-0-0-0-0-0-0-3-3-3-3-3-3-3-3-|

G ------------------------------------------------|
D ------------------------------------------------|
A 3-3-3-3-3-3-3-3-0-0-0-0-0-0-0-0-----------------|
E --------------------------------0-0-0-0-0-0-0-0-|

G ------------------------------------------------|
D ------------------------------------------------|
A 3-3-3-3-----------------3-3-3-3-----------------|
E --------0-0-0-0-0-0-0-0---------0-0-0-0-0-0-0-0-|

"Worth fighting For!!" Play this like the vocals 3:18
G --------|
D --------|
A 3-5-5---|
E ------0-|

Repeat Chorus X2 3:20

Repeat breakdown at 3:52

Any questions feel free to email me
Suggest correction
What's this?
You can suggest a correction to this tab. Community and Mods will review your correction and vote to approve or reject it.
comments
We did not receive enough feedback on this tab! Please rate:
print report bad tab
1 2 3 4 5
guest
You may want to rate the tab now too:
select rating
Please do not post tabs as comments. Select "correction" instead!