Oops, an error
Loading. Please wait.

Youve Got Another Thing Comin Tab

version 4
version 4
70,996 views 123 this week
8 commentsread comments
1 2 3 4 5
x 36
add to favorites
launch autoscroll
font size
0
reset
how to read this tab
guitar tuner
Autoscroll
slow
fast
+/-
esc
set tempo
stop
Help us to improve Ultimate-Guitar.com Take our survey!
×
Author
[Intro Verse]

       8X
E|-----------|    |-------------------------------------------|
B|-----------|    |-------------------------------------------|
G|-o--------o|    |-4-----------------------------------------|
D|-o--------o|    |-2--------4------------------2-----2-2-4---|
A|--4-4-4-4--|    |----------2--------4---------0-4-4-0-0-2-4-|
E|--2-2-2-2--|    |-------------------2-----------2-2-------2-|
    * * * *


[Verse]

               4X
E|-------------------------------|
B|-------------------------------|
G|o-----------------------------o|
D|o---------------2-------------o|
A|--4----4--4-4-4-0---4-4-4-2-4--|
E|--2--0-2--2-2-2---0-2-2-2-0-2--|
            * * *       * *

(for this part, each dash(-) = 1 beat)
E|-----------------------------------------|
B|-----------------------------------------|
G|------2-------------------2--------------|
D|------0----4--------------0----4----6----|
A|-4---------2----4----4---------2----4----|
E|-2--------------2----2-------------------|


[Chorus]

(first time through is only 2X)
E|----------------------------------| |---|
B|----------------------------------| |---|
G|-o-------------------------------o| |---|
D|-o-2-----2-----------2-----2-2-4-o| |---|
A|---0-4-4-0-4-4-4-4-4-0-4-4-0-0-2--| |-4-| *Hold for 8 beats and then
E|-----2-2---2-2-2-2-2---2-2--------| |-2-|  back to verse
       * *   * * * * *

*second chorus is 4X


[Bridge]

(each dash also = 1 beat)
E|-----------------------------------------|
B|------7-------------------7--------------|
G|-7----7--------------7----7---------6----|
D|-7----7----7----4----7----7----7----6----|
A|-5----5----7----4----5----5----7----4----|
E|-----------5----2--------------5---------|


[Solo]

E|-21b(23)--21b(23)--21b(23)--21b(23)--17-----|
B|----------------------------------------19~-|
G|--------------------------------------------|
D|--------------------------------------------|
A|--------------------------------------------|
E|--------------------------------------------|

E|--------------------------------------------------------------|
B|---------14-17-14---------14----14----14----14----14----------|
G|-16b(17)----------16b(17)----16----16----16----16----16p14----|
D|-----------------------------------------------------------16-|
A|--------------------------------------------------------------|
E|--------------------------------------------------------------|

E|----------------------------------------------|
B|----------------------------------------------|
G|----14-16b(17r16)-14------14-16b(17b16)-14----|
D|-16------------------16--------------------16-|
A|----------------------------------------------|
E|----------------------------------------------|

E|----------------------------------------------------|
B|----------------------------------------------------|
G|-----------14---------------------------------------|
D|-14h15h16------16p14----14----------14--------------|
A|---------------------16----16p15p14----16p14----14~-|
E|---------------------------------------------17-----|

E|-------------------------------------------------|
B|-17b(18)-17b(18)-17b(18)~--17p14-----------------|
G|---------------------------------16p14-----------|
D|---------------------------------------16p14-----|
A|---------------------------------------------14~-|
E|-------------------------------------------------|

E|---------------------------------------------------------------|
B|-12b(13r12)-12-10h12p10-9h10p9-7h9p7--------7--------7---------|
G|-------------------------------------9b(10)---9b(10)---9b(10)~-|
D|---------------------------------------------------------------|
A|---------------------------------------------------------------|
E|---------------------------------------------------------------|

this note is played
on the bend-|
            |
E|----------|-17b(18)~-|
B|-17b(19)-19----------|
G|---------------------|
D|---------------------|
A|---------------------|
E|---------------------|
                                                             3X
E|-14-17-14-17----14-------------------------------||--------14---------|
B|-------------17----17-14-17-14----14-------------||-----14----17p14---|
G|-------------------------------16----16-14-16-14-||o-16-------------o-|
D|-------------------------------------------------||o----------------o-|
A|-------------------------------------------------||-------------------|
E|-------------------------------------------------||-------------------|

E|-------------------------------------------------------------------------|
B|-------------------------------------------------------------------------|
G|-16b(18)-(18)-(18)-(18)-(18)-(17)-(17)-(17)-(17)-(17)-16b(17r16)-14~-----|
D|-------------------------------------------------------------------------|
A|-------------------------------------------------------------------------|
E|---------------------------------------------------------------------15\-|
(play notes in parenthesis while returning the bend down)


[Outro verse]

(this part begins to fade out near the end, but playing it 4X is fine)
E|------------------------------|
B|------------------------------|
G|o-4--------------------------o|
D|o-2----4---------2-----2-2-4-o|
A|-------2----4----0-4-4-0-0-2--|
E|------------2------2-2--------|



************************************

| (n)  Ghost note
| h    Hammer-on
| p    Pull-off
| r    Release
| b    Bend
| \    Slide down
| ~    Vibrato
| *    Palm mute      
 

************************************
Suggest correction
comments
print report bad tab
8 comments total. Showing first comments.
0 reply
badbass64 199 Mar 11, 2009 01:14 AM

hmph..first comment with 5 ratings. not a bad tab.

0 reply
RockN'Roller732 10 Apr 25, 2009 09:44 AM

great tab. but one problem.
When it goes:

E|------------------------------o|
B|------------------------------o|
G|o-----------------------------o|
D|o-----------------------------o|
A|--4----4--4-4-4-4-4-4-4-4-4---o|
E|--2--0-2--2-2-2-0-2-2-2-0-2---o|
. . .

I get to to sound better as:

E|-------------------------------|
B|-------------------------------|
G|o-----------------------------o|
D|o---------------2-------------o|
A|--4----4--4-4-4-0---4-4-4-2-4--|
E|--2--0-2--2-2-2---0-2-2-2-0-2--|

0 reply
RockN'Roller732 10 Apr 25, 2009 09:45 AM

sorry bout that it supposed to be other way around. The tab says the one on the bottom but i play the one on the top

guest
You may want to rate the tab now too:
select rating
Wanna post a correction for this tab? Suggest correction