Oops, an error
Loading. Please wait.

Have Yourself A Merry Little Christmas tab

version 1
version 1

Whole song

Interactive

5,227 views 12 this week
no commentswrite comment
1 2 3 4 5
x 6
add to favorites
×
Save as Personal and add changes to this tab that will be seen only by you. Learn more ›
×
You can save this tab as Personal to edit and correct it or add notes. All changes will be seen only by you. Learn more »
launch autoscroll
font size
0
reset
how to read this tab
guitar tuner
edit
Autoscroll
slow
fast
+/-
esc
set tempo
stop
Author
-------------------------------------------------------------------------------
          Have Yourself A Merry Little Christmas- Judy Garland
-------------------------------------------------------------------------------
Tabbed by: cottoncampyburrito on YouTube

Tuning:Standard

|--------3--|--------0--|--------0--|--------2--|
|--------0--|--------1--|--------1--|--------1--|
|-----0-----|-----0-----|-----2-----|-----2-----|
|-----------|-----------|-----------|--0--------|
|-----------|-----------|--0--------|-----------|
|-3---------|--0--------|-----------|-----------|
Have yourself a merry little Christmas
Let your heart be light
From now on your troubles will be out of sight, yeah

Have yourself a merry little Christmas
Make the Yuletide gay
From now on your troubles will be miles away, oh

|--------0--||--------0--|--------3--|--------3--|
|--------1--||--------1--|--------3--|--------3--|
|-----0-----||-----0-----|-----0-----|-----0-----|
|-----------||-----------|-----------|-----------|
|--3--------||--3--------|--2--------|--2--------|
|-----------||-----------|-----------|-----------|
Here we are as in olden days
|--------0--|--------0--|--------3--|--------3--|
|--------1--|-----2--1--|--------0--|--------0--|
|-----2-----|--0--------|-----0-----|-----0-----|
|-----------|-----------|-----------|-----------|
|--0--------|-----------|-----------|-----------|
|-----------|-----------|--3--------|--3--------|
Happy golden days of yore, ah
|--------0--||--------0--|--------3--|--------3--|
|--------1--||--------1--|--------3--|--------3--|
|-----0-----||-----0-----|-----0-----|-----0-----|
|-----------||-----------|-----------|-----------|
|--3--------||--3--------|--2--------|--2--------|
|-----------||-----------|-----------|-----------|
Faithful friends who are dear to us
|--------0--|--------0--|--------0--|--------0--|
|--------1--|--------1--|--------1--|--------1--|
|-----2-----|-----2-----|-----2-----|-----2-----|
|--0--------|-----------|--0--------|--0--------|
|-----------|--0--------|-----------|-----------|
|-----------|-----------|-----------|-----------|
Gather near to us once more, ooh

|--------3--|--------0--|--------0--|--------2--|
|--------0--|--------1--|--------1--|--------1--|
|-----0-----|-----0-----|-----2-----|-----2-----|
|-----------|-----------|-----------|--0--------|
|-----------|-----------|--0--------|-----------|
|--3--------|--0--------|-----------|-----------|
Through the years we all will be together and
If the fates allow
Hang a shining star upon the highest bow, oh yeah, oh
|--------0--|--------0--|--------0--|--------0--|--------3--|
|--------1--|--------1--|--------1--|--------1--|--------0--|
|-----0-----|-----0-----|-----2-----|-----2-----|-----0-----|
|-----------|-----------|-----------|--0--------|-----------|
|--3--------|--3--------|--0--------|-----------|-----------|
|-----------|-----------|-----------|-----------|--3--------|
And have yourself a merry little Christmas now, oh, oh

            
            
Suggest correction
Creating personal tab
Creating personal tab
You can edit any tab online and save it as your Personal.

You can edit, replace or remove any tab part or add personal notes – all changes will be seen only by you.

Personal tabs can be accessed anytime from any device, even offline.
Learn more »
comments
print report bad tab
guest
You may want to rate the tab now too:
select rating
Wanna post a correction for this tab? Suggest correction