Oops, an error
Loading. Please wait.

Over The Rainbow Tab

version 1
version 1

Whole song

Interactive

10,666 views 3 this week
no commentswrite comment
1 2 3 4 5
please rate
add to favorites
launch autoscroll
font size
0
reset
how to read this tab
guitar tuner
Tab Pro tools
  • play this tab
  • loop segment
  • change instrument
  • show fretboard
  • metronome
×
Best way to learn
"Over The Rainbow"
Autoscroll
slow
fast
+/-
esc
set tempo
stop
Contributor
Difficulty
novice
Over the Rainbow

Arranged by Tony Crowley.  Midi available from crowley@macace.net
Where possible, identify and work from chord shapes.
Tuning: EADGBE  Time Signature: 4/4

 
|----------------8---------------|7---------------7-------8-------|
|1---------------8---------------|8-------8---10--8-------9-------|
|0---------------9---------------|7---------------7-------9-------|
|2---------------7---------------|9---------------9-------8-------|
|3-------------------------------|7-------------------------------|
|--------------------------------|--------------------------------|

     
|--------5---------------5-------|----------------5---4---3-------|
|--------5---------------4-------|------------3-------------------|
|----5---------------5-----------|--------3-----------------------|
|3---------------4---------------|----3---------------------------|
|--------------------------------|--------------------------------|
|--------------------------------|3-------------------------------|

 
|----------------3---2---1-------|0---------------5-------5-------|
|------------1-------------------|0-------1---3---5-------6-------|
|--------1-----------------------|0---------------6-------6-------|
|----1---------------------------|2---------------5-------5-------|
|--------------------------------|3-------------------------------|
|1-------------------------------|--------------------------------|

 
|--------------------------------|----------------0-------3-------|
|3---------------3-------5-------|------------0-------------------|
|5-------4---5---4---------------|--------0-----------------------|
|3---------------3---------------|----2---------------------------|
|5---------------5---------------|3-------------------------------|
|--------------------------------|--------------------------------|


 
|0---3---0---3---0---3---0---3---|1---3---1---3---1---3---1---3---|
|1---------------1---------------|1---------------1---------------|
|0---------------0---------------|2---------------2---------------|
|2---------------2---------------|0---------------0---------------|
|3---------------3---------------|--------------------------------|
|--------------------------------|--------------------------------|

  
|5---------------5---------------|----------------0-------3-------|
|6---------------6---------------|------------0-------------------|
|5---------------5---------------|--------0-----------------------|
|7---------------7---------------|----3---------------------------|
|--------------------------------|--------------------------------|
|--------------------------------|3-------------------------------|

  
|0---3---0---3---0---3---0---3---|--------------------------------|
|0---------------0---------------|7---10--7---10--7---10--7---10--|
|0---------------0---------------|8---------------8---------------|
|2---------------2---------------|7---------------7---------------|
|3---------------3---------------|9---------------9---------------|
|--------------------------------|--------------------------------|

 
|7---------------7---------------|--------10------3---------------|
|8---------------8---------------|--------10------4---------------|
|9---------------8---------------|--------10------4---------------|
|9---------------9---------------|----10----------3---------------|
|7-------------------------------|--------------------------------|
|--------------------------------|10--------------3---------------|

 
|----------------8---------------|7---------------7-------8-------|
|1---------------8---------------|8-------8---10--8-------9-------|
|0---------------9---------------|7---------------7-------9-------|
|2---------------7---------------|9---------------9-------8-------|
|3-------------------------------|7-------------------------------|
|--------------------------------|--------------------------------|

     
|--------5---------------5-------|----------------5---4---3-------|
|--------5---------------4-------|------------3-------------------|
|----5---------------5-----------|--------3-----------------------|
|3---------------4---------------|----3---------------------------|
|--------------------------------|--------------------------------|
|--------------------------------|3-------------------------------|

       
|----------------3---2---1-------|0---------------5-------5-------|
|------------1-------------------|0-------1---3---5-------6-------|
|--------1-----------------------|0---------------6-------6-------|
|----1---------------------------|2---------------5-------5-------|
|--------------------------------|3-------------------------------|
|1-------------------------------|--------------------------------|

       
|--------------------------------|----------------0-------3-------|
|3---------------3-------5-------|------------0-------------------|
|5-------4---5---4---------------|--------0-----------------------|
|3---------------3---------------|----2---------------------------|
|5---------------5---------------|3-------------------------------|
|--------------------------------|--------------------------------|

    
|0---3---0---3---0---3---0---3---|1---3---1---3---1-------3-------|
|1---------------1---------------|1---------------1---------------|
|0---------------0---------------|2---------------2---------------|
|2---------------2---------------|0---------------0---------------|
|3---------------3---------------|--------------------------------|
|--------------------------------|--------------------------------|

        
|5---------------7---------------|------------------------8-------|
|6---------------6---------------|----------------8---------------|
|5---------------7---------------|--------8-----------------------|
|7---------------5---------------|6-------------------------------|
|5---------------5---------------|--------------------------------|
|--------------------------------|--------------------------------|

        
|--------------------------------|--------------------------------|
|-------------------------6------|-----------------------5--------|
|----------------5---------------|---------------4----------------|
|--------6-----------------------|------- 5-----------------------|
|4-------------------------------|3-------------------------------|
|--------------------------------|--------------------------------|



comments
We did not receive enough feedback on this tab! Please rate:
print report bad tab
1 2 3 4 5
I want to post or [tab]
guest
You may want to rate the tab now too:
select rating
Please do not post tabs as comments. Select "correction" instead!