Oops, an error
Loading. Please wait.

Somewhere Over The Rainbow Tab

version 2
version 2

Whole song

Interactive

40,751 views 84 this week
1 commentread comment
1 2 3 4 5
excellent!
x 11
add to favorites
launch autoscroll
font size
0
reset
how to read this tab
guitar tuner
Autoscroll
slow
fast
+/-
esc
set tempo
stop
Help us to improve Ultimate-Guitar.com Take our survey!
×
Author
                      Somewhere Over The Rainbow
                            Judy Garland

Tab By: omanyen@fusemail.com

  This is a great traditional song from the "Wizard of Oz".
  If you play it with a "BLUESY" feel, it really comes out
  great. I've left out alot of the 'extra' chords which are
  really not needed and makes the song sound "cluttered".
  I've simplified the melody and included a guitar lead,
  hope you enjoy it.

   C              C                Em                

  Some           where            over       the      rainbow
---------0-----|---------8-----|----7------7-------7--------7----|
--1----1---1---|--8----8---8---|------8------8--------8--------8-|
-----0-------0-|-----9-------9-|----------------9----------------|
---------------|--10-----------|---------9---------------9-------|
--3------------|---------------|--7------------------------------|
---------------|---------------|---------------------------------|
  
   F              Fm              C   ( fill in run ) /=slide up
                                                       \=slide down
  Way             up             high
----------1----|---------1-----|--0--|---------------------------|
--1-----1---1--|--1----1---1---|--1--|----------------8----------|
-----2--------2|-----1-------1-|--0--|----------5-7/9---9\7-5----|
--3------------|--3------------|--2--|------5-7---------------7--|
---------------|---------------|--3--|--3/7----------------------|
---------------|---------------|-----|---------------------------|

  F               Fm              C
                   
 there's          a               land  that I    heard of
---------1-----|---------1-----|---------0-----|---------0-------|
--1----1---1---|--1----1---1---|--1----1---1---|--1----1---1-----|
-----2-------2-|-----1-------1-|-----0-------0-|-----0-------0---|
--3------------|--3------------|---------------|-----------------|
---------------|---------------|--3------------|--3--------------|
---------------|---------------|---------------|-----------------|

   Dm              G7            C           ( fill in run )
                                             h=hammer
  once  in  a     lulla-         by
---------1-----|--------1-----|--------0----|------------------0-|
--3----3---3---|--0---0---0---|--1---1---1--|----------1-------1-|
-----2-------2-|----0-------0-|----0-------0|------0-2---2-0---0-|
--0------------|--------------|-------------|--0h2-------------2-|
---------------|--------------|--3----------|------------------3-|
---------------|--3-----------|-------------|--------------------|

             ( repeat this sequence for 2nd verse )


   BRIDGE: ( played with a steady up & down stroke )

 Someday I'll wish    and wake up where the
   upon a star            clouds are far            behind me
-----5-------------|-------5----------------|----------5---------|
-----5-------------|-------6----------------|----------8---------|
-----5-------------|-------5----------------|----------5---------|
-----5-------------|-------5----------------|----------5---------|
-----7-------------|-------7----------------|----------7---------|
-----8-------------|-------8----------------|----------5---------|


Where troubles melt    away up on the  that's where you'll   me
 like lemon drops      chimney tops                  find
-----5-------------|-------2----------|--7---|--5--|--5---|---1--|
-----5-------------|-------0----------|--8---|--5--|--6---|---0--|
-----5-------------|-------2----------|--9---|--5--|--7---|---0--|
-----5-------------|-------1----------|--9---|--7--|--7---|---0--|
-----7-------------|-------2----------|--7---|--7--|--5---|---2--|
-----8-------------|------------------|------|--5--|------|---3--|


LEAD: /=slide up \=slide down h=hammer r=rake(pull-off)

----5/8---7---3---5---7---8--|----3/5---3h5r3--------------------|
-1---------------------------|-1---------------5---3---5---3---1-|
-----------------------------|-----------------------------------|
----7/10--9---5---7---9---10-|----5/7---5------5---5---5---5---3-|
-3---------------------------|-3---------------------------------|
-----------------------------|-----------------------------------|



-------------------------|-------------------------------|
-3/6---5---1---3---5---6-|--3---0---1---3---5\3---1------|
-------------------------|-------------------------------|
-3/6---5---2---3---5---6-|--3---2---0---3---5\3---2------|
-------------------------|-------------------------------|
-------------------------|-------------------------------|


------------------------------|--------------------------------|
--8------8------8-------8-----|--8-------8-------8-------8-----|
------9------9------9-------9-|------10------10------10------10|
--10-----10-----10------10----|--10------10------10------10----|
------------------------------|--------------------------------|
------------------------------|--------------------------------|


--------------10---------|
----------10------10-----|
------10--------------10-| ( repeat this sequence 4 times )
--12---------------------|
-------------------------|
-------------------------|


--------------------------------|-------------------------------|
--8------8------8------8------8-|-----9-------9-------9-------9-|
------9------9------9------9----|-11------11------11------11----|
--10-----10-----10-----10-----10|-11--11--11--11--11--11--11--11|
--------------------------------|-------------------------------|
--------------------------------|-------------------------------|

                                              somewhere.........
------------------10--10-----|--------------0-------------------|
--12--12--10--10-------------|--------------1-------------------|
------------------11--11--12-|--------------0-------------------|
--12--12--12--12-------------|--------------2-------------------|
--------------------------10-|------0---2---3-------------------|
-----------------------------|---3------------------------------|

        Any questions, comments, or complaints, feel
      free to E-mail me or post a thread at this sight.
Suggest correction
comments
print report bad tab
1 comment total.
0 reply
tb_1337 20 wrote on April 23 2008, 04:23 am

good tab

guest
You may want to rate the tab now too:
select rating
Wanna post a correction for this tab? Suggest correction