Oops, an error
Loading. Please wait.

Somewhere Over The Rainbow Tab

version 3
version 3

Whole song

Interactive

16,245 views 48 this week
3 commentsread comments
1 2 3 4 5
not so good
x 5
add to favorites
launch autoscroll
font size
0
reset
how to read this tab
guitar tuner
Autoscroll
slow
fast
+/-
esc
set tempo
stop
Help us to improve Ultimate-Guitar.com Take our survey!
×
Author
Difficulty
novice
Okay this is my first tab...


SOMEWHERE OVER THE RAINBOW



Somewhere over the rainbow
E |----------------------------------------|
B |--3-------------------------------------|
G |----------------------------------------|
D |--------5---4---0---2---4---5-----------|
A |----------------------------------------|
E |----------------------------------------|

Way up high
E |----------------------------------------|  
B |-3--------------------------------------|
G |----------------------------------------| 
D |-----2--0-------------------------------|
A |----------------------------------------|
E |----------------------------------------|

There's a land that I heard of
E |----------------------------------------|
B |--3--------3----------------------------|
G |-----3--2----0--2--3--------------------|
D |----------------------------------------|
A |----------------------------------------|
E |----------------------------------------|


Once in a lullaby
E |----------------------------------------|
B |-----2--3---------3---------------------|
G |--0--------0--2-------------------------| 
D |----------------------------------------| 
A |----------------------------------------| 
E |----------------------------------------|



Somewhere over the rainbow
E |----------------------------------------|
B |--3-------------------------------------|
G |----------------------------------------|
D |--------5---4---0---2---4---5-----------|
A |----------------------------------------|
E |----------------------------------------|

Skies are blue
E |----------------------------------------|  
B |-3--------------------------------------|
G |----------------------------------------| 
D |-----2--0-------------------------------|
A |----------------------------------------|
E |----------------------------------------|


And the dreams that you dare to
E |----------------------------------------|
B |--3--------3----------------------------|
G |-----3--2----0--2--3--------------------|
D |----------------------------------------|
A |----------------------------------------|
E |----------------------------------------|

Dream really do come true
E |----------------------------------------|
B |-----2--3---------3---------------------|
G |--0--------0--2-------------------------| 
D |----------------------------------------| 
A |----------------------------------------| 
E |----------------------------------------|



Someday I'll wish upon a star
E |----------------------------------------|
B |----------------------------------------|
G |--3-0--3-0--3-0--3-0--------------------|
D |----------------------------------------|
A |----------------------------------------|
E |----------------------------------------|

And wake up where the clouds are far behind me
E |----------------------------------------|
B |----------------------------------------|
G |--3-1--3-1--3-1-3-1-3--5--7-------------|
D |----------------------------------------|
A |----------------------------------------|
E |----------------------------------------|

Where troubles melt like lemon drops

E |----------------------------------------|
B |----------------------------------------|
G |--3-0--3-0--3-0--3-0--------------------|
D |----------------------------------------|
A |----------------------------------------|
E |----------------------------------------|

Away above the chimney tops that's
E |----------------------------------------|
B |----------------------------------------|
G |--3-1--3-1--3-1-3-1-3-------------------|
D |----------------------------------------|
A |----------------------------------------|
E |----------------------------------------|

Where you'll find me
E |----------------------------------------|
B |----------------------------------------|
G |-5--5--7--8-----------------------------|
D |----------------------------------------|
A |----------------------------------------|
E |----------------------------------------|



Somewhere over the rainbow
E |----------------------------------------|
B |--3-------------------------------------|
G |----------------------------------------|
D |--------5---4---0---2---4---5-----------|
A |----------------------------------------|
E |----------------------------------------|

Bluebirds fly
E |----------------------------------------|  
B |-3--------------------------------------|
G |----------------------------------------| 
D |-----2--0-------------------------------|
A |----------------------------------------|
E |----------------------------------------|

Birds fly over the rainbow
E |----------------------------------------|
B |--3--------3----------------------------|
G |-----3--2----0--2--3--------------------|
D |----------------------------------------|
A |----------------------------------------|
E |----------------------------------------|

Why then oh why can't I?
E |----------------------------------------|
B |-----2--3---------3---------------------|
G |--0--------0--2-------------------------| 
D |----------------------------------------| 
A |----------------------------------------| 
E |----------------------------------------|



If happy little bluebirds fly
E |----------------------------------------|
B |----------------------------------------|
G |--3-0--3-0--3-0--3-0--------------------|
D |----------------------------------------|
A |----------------------------------------|
E |----------------------------------------|
Beyond the rainbow why 
E |----------------------------------------|
B |----------------------------------------|
G |-3-1--3-1--3-1--------------------------|
D |----------------------------------------|
A |----------------------------------------|
E |----------------------------------------|


Oh why can't I?
E |----------------------------------------|
B |----------------------------------------|
G |-5-5--7--8------------------------------|
D |----------------------------------------|
A |----------------------------------------|
E |----------------------------------------|

____________________________________________
Suggest correction
What's this?
You can suggest a correction to this tab. Community and Mods will review your correction and vote to approve or reject it.
comments
print report bad tab
3 comments total.
+1 reply
ckestes 12 wrote on February 14 2008, 08:57 pm

you wrote the tab upside down. if it weren't for that it wouldn't sound too bad once i figired it out.

0 reply
jordan_arp 19 wrote on July 30 2008, 06:39 am

yeah, even knowing it was upside down made it hard as hell to play because my brain just doesn't work well upside down

0 reply
The_lizard_king 422 wrote on March 30 2009, 05:06 pm

hell yeah, great tab except that its upside down but fantastic. It sounds good with delay and good distortion effects.

guest
You may want to rate the tab now too:
select rating
Please do not post tabs as comments. Select "correction" instead!