Oops, an error
Loading. Please wait.

Haaveilija chords

11,995 views 33 this week
no commentswrite comment
1 2 3 4 5
x 3
add to favorites
×
Save as Personal and add changes to this tab that will be seen only by you. Learn more ›
×
You can save this tab as Personal to edit and correct it or add notes. All changes will be seen only by you. Learn more »
launch autoscroll
font size
0
reset
transpose
0
reset
simplify chords
display chords
guitar tuner
edit
Autoscroll
slow
fast
+/-
esc
set tempo
stop
Strumming
There is no strumming pattern for this song yet. and get +5 IQ
-------------------------------------------------------------------------
HAAVEILIJA – Juha Tapio
-------------------------------------------------------------------------
Tabbed by: Kengus

Standard tuning
Capo on second fret!

[INTRO]
e|-----------------------------------------------------------------------|
B|-----0-----------1---------0-----------0-----------1---------0---------|
G|---0---0---2---2---0---0-------0-----0---0---2---2---0---0-------0-----|
D|-0-------0---0-------0---0---0-----0-------0---0-------0---0---0-------|
A|-----------------------------------------------------------------------|
E|-----------------------------------------------------------------------|
   Em
e|-----------------------------------------------------------------------|
B|-----0-----------1---------0-----------0-----------1---------0---------|
G|---0---0---2---2---0---0-------0-----0---0---2---2---0---0-------0-----|
D|-0-------0---0-------0---0---0-----0-------0---0-------0---0---0-------|
A|-----------------------------------------------------------------------|
E|-----------------------------------------------------------------------|

[VERSE 1]
Em            Bm        C             G
Tässä oon, ei tarvi sun hapuilla tai huitoo
Em           Bm          C   D
Tässä oon ja suhun keskityn
Em           Bm            C             G
Tiedän kyllä mistä tuut ja minkälaiseen tuntoon
Em           Bm       C     Am  B
Uponnut on moni pettymys

[CHORUS]
C                    G                       C                    G   Gmaj7
Kauneutes sun kertoisin ja luvan jos saisin, sun kyynelees kuivaisin
C                       G       Bm               C                  G
Pystyyn sun pääs nostaisin, varoen koskettaisin, niin kauan sua odotin

Gmaj7  Am  B

[VERSE 2]
Em         Bm            C             G
Odotin sua ennen kuin sä tiesit musta mitään
Em           Bm           C    D
Kaiken aikaa tuntenut sut oon
Em           Bm          C             G
Tiesin kyllä senkin että länteen sekä itään
Em          Bm           C     Am  B
Hamuaisit ennen kuin mun luo

[CHORUS]
C                    G                       C                    G   Gmaj7
Kauneutes sun kertoisin ja luvan jos saisin, sun kyynelees kuivaisin
C                       G       Bm               C                  G
Pystyyn sun pääs nostaisin, varoen koskettaisin, niin kauan sua odotin

[SOLO]
Gmaj7  Am  Am  G
Gmaj7  Am  Am

[VERSE 3]
Em         Bm           C              G
Vuorosanas hallitset ja niissä pystyt kulkee
Em          Bm            C     D
Pystyisitkö jättämään ne pois?
    Em          Bm          C                G
Kun mä en tahdo sulta muuta kun vain syliin sulkee
Em           Bm          C     Am  B
Täällä sulle tilaa vielä ois

[CHORUS]
C                    G                       C                    G   Gmaj7
Kauneutes sun kertoisin ja luvan jos saisin, sun kyynelees kuivaisin
C                       G       Bm               C                  G   Bm
Pystyyn sun pääs nostaisin, varoen koskettaisin, niin kauan sua odotin
C                    G                       C                    G   Gmaj7
Kauneutes sun kertoisin ja luvan jos saisin, sun kyynelees kuivaisin
C                       G       Bm               C                  Em
Pystyyn sun pääs nostaisin, varoen koskettaisin, niin kauan sua odotin

[OUTRO]
   Em
e|-----------------------------------------------------------------------|
B|-----0-----------1---------0-----------0-----------1---------0---------|
G|---0---0---2---2---0---0-------0-----0---0---2---2---0---0-------0-----|
D|-0-------0---0-------0---0---0-----0-------0---0-------0---0---0-------|
A|-----------------------------------------------------------------------|
E|-----------------------------------------------------------------------|
   Em
e|-----------------------------------------------------------------------|
B|-----0-----------1---------0-----------0-----------1---------0---------|
G|---0---0---2---2---0---0-------0-----0---0---2---2---0---0-------0-----|
D|-0-------0---0-------0---0---0-----0-------0---0-------0---0---0-------|
A|-----------------------------------------------------------------------|
E|-----------------------------------------------------------------------|
Suggest correction
Creating personal tab
Creating personal tab
You can edit any tab online and save it as your Personal.

You can edit, replace or remove any tab part or add personal notes – all changes will be seen only by you.

Personal tabs can be accessed anytime from any device, even offline.
Learn more »
Give kudos to tab author, rate the tab!
1 2 3 4 5
comments
print report bad tab
guest
You may want to rate the tab now too:
select rating
Wanna post a correction for this tab? Suggest correction