Oops, an error
Loading. Please wait.

Kaksi Puuta Tab

64 views 1 this week
no commentswrite comment
1 2 3 4 5
3 more votes to show rating
add to favorites
launch autoscroll
font size
0
reset
how to read this tab
guitar tuner
Autoscroll
slow
fast
+/-
esc
set tempo
stop
Help us to improve Ultimate-Guitar.com Take our survey!
×
Author
Difficulty
[Intro]/ solo in chorus
1st time 0.00-0.19
e|---------------------------------------------------------------------------|
B|---------------------------------------------------------------------------|
G|----9br------7--9br--------------------------------------------------------|
D|---------10---------10-7---10 10 10-8--7-7---------------------------------|
A|-------------------------------------------10-8-7--------------------------|
E|--------------------------------------------------10-----------------------|

e|---------------------------------------------------------------------------|
B|---------------------------------------------------------------------------|
G|-----9br-----7--9br--------------------------------------------------------|
D|---------10---------10--7--------------------------------------------------|
A|---------------------------------------------------------------------------|
E|---------------------------------------------------------------------------|



~guitar in background 

           Oomme taas kuin kaksi lasta...( 0.44-0.52)
e|---------------------------------------------------------------------------|
B|--------------------------8----8-10--8-------------------------------------|
G|-----7---9---10---9---10----10---------------------------------------------|
D|---------------------------------------------------------------------------|
A|---------------------------------------------------------------------------|
E|---------------------------------------------------------------------------|



       kaksi vanhaa puuta sateen pieksämää katsoo kevääseen seisoo erillään.. (1.07-1.33)
e|------------------------------------------------------6---8----------------|
B|-------------------8-8--8--10---6--8------6---8---10-----------------------|
G|-------------------------------------7-------------------------------------|
D|---------------------------------------------------------------------------|
A|---------------------------------------------------------------------------|
E|---------------------------------------------------------------------------|



Kaksi ylvästä ja nuorta (1.44-1.51).../ ehkä vuodet ovat...(1.51-2.01)

e|------55535------5555----------------5555----------------5555--------------------------|
B|---8------8---8-----8-----------8-------8-8h108--6h8---8----8--------------------------|
G|----------------------7har---------------------------7--------7har---------------------|
D|---------------------------------------------------------------------------------------|
A|---------------------------------------------------------------------------------------|
E|---------------------------------------------------------------------------------------|



Chorus ( soolo) 3.02- 3.23
e/------------------------------------------------/
B/------------------------------------------------/
G/---9br---7---9br--------------------------------/
D/------10---------10-7-10-10-10-8-7-7------------/
A/-------------------------------------10-8-7-----/
E/--------------------------------------------10--/


e/------------------------------------------------------------------------/
B/----------------------------------------------------11-13/--------------/
G/----9br-----7/---9br-----------------------------7--12-15/--------------/
D/--------10 10/-------10-7-8-7-10-8-7--------7-10------------------------/
A/-------------------------------------10-8-10----------------------------/
E/------------------------------------------------------------------------/


in the end.
katsoo kevääseen seisoo erillään ja jossain alla maan...
e|------------------------------------------------------------------------------------------------|
B|-----------------17br-17br-17br-17br-17br-17br--19br-17-18-17-----------------------------------|
G|-------------------------------------------------------------17-15-14---------------------------|
D|---------------------------------------------------------------------17-15-14-------------------|
A|------------------------------------------------------------------------------15-13-12----------|
E|----------------------------------------------------------------------------------------15-13-12|


************************************

| x   Dead note
| g   Grace note
| (n) Ghost note
| h   Hammer-on
| p   Pull-off
| r   Release
| >   Accented note
| t   Tapping
| b   Bend
| br  Bend release
| pb  Pre-bend
| pbr Pre-bend release
| /   Slide up
| \   Slide down
| ~   Vibrato
| s   Slap
| P   Pop
| PM  Palm mute
| TR  Trill
| N   Tremolo

************************************
Suggest correction
Give kudos to tab author, rate the tab!
1 2 3 4 5
comments
print report bad tab
guest
You may want to rate the tab now too:
select rating
Wanna post a correction for this tab? Suggest correction