Oops, an error
Loading. Please wait.

Musta Aurinko Nousee tab

799 views 42 this week
no commentswrite comment
1 2 3 4 5
2 more votes to show rating
add to favorites
×
Save as Personal and add changes to this tab that will be seen only by you. Learn more ›
×
You can save this tab as Personal to edit and correct it or add notes. All changes will be seen only by you. Learn more »
launch autoscroll
font size
0
reset
how to read this tab
guitar tuner
edit
Autoscroll
slow
fast
+/-
esc
set tempo
stop
Author
Difficulty
Artist: Juice Leskinen Grand Slam
Album: Pyromaani palaa rikospaikalle (1985)
Song: Musta Aurinko Nousee

This tab is based on the version 1 chords of this song on UG, with some corrections
(https://tabs.ultimate-guitar.com/j/juice_leskinen/musta_aurinko_nousee_crd.htm)

Tuning: EADGBe (Standard) - the recording is tuned a bit sharp

Chords:
Bbmaj7 x13231
Bb7 x13131
Csus4 x35563
Csus2 x35533
Bm7-5 x2323x

[Intro]
   1  &  2  &  3  &  4  &  | 1  &  2  &  3  &  4  &  | 1  &  2  &  3  &  4  &  | 1  &  2  &  3  &  4  &  |
   Dm                        G        Bb    C     Dm   Dm                        G        Bb    C     Dm     
e|-------------------------|-------------------------|-------------------------|----------------------10-|
B|13b15--------------------|b15r13----------10-------|-------------------------|/13-13-13-13~~--10-13----|
G|-------------------------|-------12-12----------10-|-10----------------------|-------------------------|
D|-------------------------|-------------------------|----12-------------------|-------------------------|
A|-------------------------|-------------------------|-------------------------|-------------------------|
E|-------------------------|-------------------------|-------------------------|-------------------------|

   1  &  2  & 3 & 4 & | 1   &  2  &  3 &  4  &  | 1  &  2  &  3  &  4  &  |1       &     2    &  3  &  4  &  |
   Dm                   G         Bb   C     Dm   Dm                       G                  Bb    C     Dm  
e|-12---b13~~---------|b13-/10-10-----------/17-|----15-13----------------|----------------------------------|
B|--------------------|-------------------13----|----------17-13----------|----------------------------------|
G|--------------------|-------------------------|----------------14-12-10-|pb13r12b13r12p10-12b14--r12----10-|
D|--------------------|-------------------------|-------------------------|----------------------------------|
A|--------------------|-------------------------|-------------------------|----------------------------------|
E|--------------------|-------------------------|-------------------------|----------------------------------|

e|--------------------|
B|--------------------|
G|--------------------|
D|-12~~---------------|
A|--------------------|
E|--------------------|


[Verse]
 Dm          F          C                [Fill 1]
Riisu yltäni tähtivyö, viivy vielä huomiseen
    Dm                   F           G                Gm
Kun henki on vahva, niin vähäkin työ riittää maailman luomiseen
Dm           F           C            A
Ole kanssani tämäkin yö, viivy vielä huomiseen
Bb            Bbmaj7 Bb7
Rakasta minua, minä rakastan sinua

[Fill 1]
   1  &  2  &  3  &  4  &  | 1  &  2  &  3  &  4  &  |
e|-------------------------|-------------------------|
B|-------------------------|-------------------------|
G|-------------------------|-------------------------|
D|----------2--3--2--------|-------------------------|
A|-------------------5--3--|-5~~---------------------|
E|-------------------------|-------------------------|


[Verse]
Dm          F           C
Katso ulos. Näätkö sen: toiset tappaa toisiaan
Dm            F          G             Gm
Alla veristen vaatteiden loiset tappaa loisiaan
Dm          F       C                  A
Ole minulle ihminen, kun toiset tappaa toisiaan
Bb            Bbmaj7 Bb7
Rakasta minua, minä rakastan sinua


[Chorus]
        F           C           Bb                F       F* C*
Ja sinä hymyilet ja katsot noin. Viet minut aamuun uuteen,
     Dm           G          Csus4  C    Csus4*  C*  Csus2*  C* 
kuin kevään ensimmäiseen sateeseen
      F               C            A                  Bb
Sinun sieluusi kiinni päästä voin. Viet meidät tulevaisuuteen
    Dm            F                Bm7-5
Ja jonakin aamuna ennen sarastusta huomaat, että musta
Bb A    Dm 
aurinko nousee

[Fill 2]
   1  &  2  &  3  &  4  &  |
e|-------------------------|
B|-------------------6-/10-|
G|----------------6--------|
D|----------5--7-----------|
A|----5--8-----------------|
E|-6-----------------------|
        aurinko      nousee

[Interlude]
   1  &  2  &  3  &  4  &  | 1  &  2  &  3  &  4  &  | 1  &  2  &  3  &  4  &  | 1    &  2  &  3  &  4  &  |
   Dm                        G        Bb    C     Dm   Dm                        G          Bb    C     Dm
e|-------------------------|-------------------------|-------------------------|--------------------------|
B|-10~~~~~-----------------|-------------------------|-------------------------|--------------------------|
G|-------------------------|-------------------------|-7~~~--------------------|9b10-b10--------\7-----5--|
D|-------------------------|-------------------------|-------------------------|--------------------------|
A|-------------------------|-------------------------|-------------------------|--------------------------|
E|-------------------------|-------------------------|-------------------------|--------------------------|

e|----------|
B|----------|
G|-7~~~~----|
D|----------|
A|----------|
E|----------|

[Verse]
Dm           F         C
Riisu yltäni tähtivyö. Viivy viikkoon seuraavaan
Dm           F            G            Gm
 Tätä riemua aika ei syö, ei se törmää maailmaan
Dm               F        C             A
Katse hellä kuin viime yö miehen riisuu aseistaan
Bb            Bbmaj7 Bb7
Rakasta minua, minä rakastan sinua


[Chorus]
        F           C           Bb                F       F* C*
Ja sinä hymyilet ja katsot noin. Viet minut aamuun uuteen,
     Dm           G          Csus4  C    Csus4*  C*  Csus2*  C* 
kuin kevään ensimmäiseen sateeseen
      F               C            A                  Bb
Sinun sieluusi kiinni päästä voin. Viet meidät tulevaisuuteen
    Dm            F                Bm7-5
Ja jonakin aamuna ennen sarastusta huomaat, että musta
Bb A    Dm 
aurinko nousee

[Fill 2]
   1  &  2  &  3  &  4  &  |
e|-------------------------|
B|-------------------6-/10-|
G|----------------6--------|
D|----------5--7-----------|
A|----5--8-----------------|
E|-6-----------------------|
  aurinko      nousee


[Solo]
   1  &  2  &  3  &  4  &  | 1  &  2  &  3  &  4  &  | 1  &  2  &  3  &  4  &  | 1  &  2  &  3  &  4  &  |
   Dm                        F                         C                         C
e|-------------------------|-------------------------|-------------------------|-------------------------|
B|-10~~-----10~~-----10p8--|-10-------10~~--8-----10-|-8-----------------8-/10-|-8--------------------6--|
G|-----------------------10|-------------------------|----------------10-------|----------------5--7-----|
D|-------------------------|-------------------------|-------------------------|-------------------------|
A|-------------------------|-------------------------|-------------------------|-------------------------|
E|-------------------------|-------------------------|-------------------------|-------------------------|

   1   &   2  &  3  &  4  &  | 1   &  2  &  3  &  4  &  | 1  &  2  &  3  &  4  &  | 1  &  2  &  3  &  4  &  |
   Dm                          F                          G                         Gm                    
e|---------------------------|--------------------------|----8--8-----10----8--10-|-------10----10----8-/17-|
B|-8-pb10----r8p6------------|-6-pb10---r8p6------6--8--|/10-------10----10-------|-------------------------|
G|---------------7-----5--7--|--------------7-----------|-------------------------|-------------------------|
D|---------------------------|--------------------------|-------------------------|-------------------------|
A|---------------------------|--------------------------|-------------------------|-------------------------|
E|---------------------------|--------------------------|-------------------------|-------------------------|

   1  &  2  &  3  &  4  &  | 1  &  2  &  3  &  4  &  | 1  &  2  &  3  &  4  &  | 1  &  2  &  3  &  4  &     |
   Dm                        F                         C                         A
e|----15-13----------------|-------------------------|-------------------------|----------------------------|
B|----------17-13----------|----------13-------------|-------------------------|----------------------------|
G|-------------------------|----10-12----10-------9--|-10-9--------10----12-10-|-12b14---------b14---r12p10-|
D|----------------------10-|-12----------------------|-------10-12----12-------|----------------------------|
A|-------------------------|-------------------------|-------------------------|----------------------------|
E|-------------------------|-------------------------|-------------------------|----------------------------|

   1  &  2  &  3  &  4  &  | 1  &  2  &  3  &  4  &  | 1  &  2  &  3  &  4  &     | 1  &  2  &  3  &  4  &  |
   Bb                                    Bbmaj7        Bb7                          Bb7
e|-------------------------|-------------------------|----------------------------|-------------------------|
B|-------------------------|-------------------------|----------------------------|-------------------------|
G|-------------------------|-------------------10----|-10-12~~-----12-10-12-12b13-|~~~~~~~~~~---------------|
D|-12~~--12~~--12~~--12~~--|-12~~--12~~--12~~-----12-|----------------------------|-------------------------|
A|-------------------------|-------------------------|----------------------------|-------------------------|
E|-------------------------|-------------------------|----------------------------|-------------------------|
~                                                                                                  Ja sinä


[Chorus]

F           C           Bb                F       F* C*
Hymyilet ja katsot noin. Viet minut aamuun uuteen,
     Dm           G          Csus4  C    Csus4*  C*  Csus2*  C* 
kuin kevään ensimmäiseen sateeseen
      F               C            A                  Bb
Sinun sieluusi kiinni päästä voin. Viet meidät tulevaisuuteen
    Dm            F                Bm7-5
Ja jonakin aamuna ennen sarastusta huomaat, että musta
Bb A    
aurinko nousee
        Ja minä

[Fill 2]
   1  &  2  &  3  &  4  &  |
e|-------------------------|
B|-------------------6-/10-|
G|----------------6--------|
D|----------5--7-----------|
A|----5--8-----------------|
E|-6-----------------------|
  aurinko      nousee
               Ja minä

[Chorus]
F             C             Bb           F        F*  C*
hymyilen kun sinut nään. Mä uskon aikaan toiseen
    Dm          G         Csus4  C    Csus4*  C*  Csus2*  C* 
ei liput liehu sotaa julistain
      F               C          A            Bb
Sinun kanssasi nousen hellimpään aamuun aurinkoiseen,
   Dm             F                Bm7-5
ja jonakin aamuna ennen sarastusta huomaan että musta
Bb A    Dm 
aurinko nousee.

[Fill 2]
   1  &  2  &  3  &  4  &  |
e|-------------------------|
B|-------------------6-/10-|
G|----------------6--------|
D|----------5--7-----------|
A|----5--8-----------------|
E|-6-----------------------|
  aurinko      nousee


[Outro]


   1  &  2  &  3  &  4  &  | 1  &  2  &  3  &  4  &  | 1  &  2  &  3  &  4  &  | 1  &  2  &  3  &  4  &  |
   Dm                        G        Bb    C     Dm   Dm                        G        Bb    C     Dm
e|-------------------------|-------------------------|-------------------------|-------------------------|
B|-10~~-----------------10b|p8-----------------------|-------------------------|-------------------------|
G|-------------------------|----------------------10-|-10----7~~---------------|-------------------------|
D|-------------------------|-------------------------|-------------------------|-------------------------|
A|-------------------------|-------------------------|-------------------------|-------------------------|
E|-------------------------|-------------------------|-------------------------|-------------------------|

   1  &  2  &  3  &  4  &  | 1  &  2  &  3  &  4  &  | 1  &  2  &  3  &  4  &  | 1  &  2  &  3  &  4  &  |
   Dm                        G        Bb    C     Dm   Dm                        G        Bb    C     Dm
e|-------------------------|-------------------------|-------------------------|-------------------------|
B|-10~~--------------------|-------------------------|-13--/15-----15~~--------|-------------------------|
G|-------------------------|-------------------------|-------------------------|-------------------------|
D|-------------------------|-------------------------|-------------------------|-------------------------|
A|-------------------------|-------------------------|-------------------------|-------------------------|
E|-------------------------|-------------------------|-------------------------|-------------------------|


[End]
  Dsus 2
e|--0---|
B|--3---|
G|--2---|
D|--0---|
A|------|
E|------|


************************************

| *   Strum once
| h   Hammer-on
| p   Pull-off
| r   Release
| b   Bend
| r   Bend release
| pb  Pre-bend
| /   Slide up
| \   Slide down
| ~   Vibrato

************************************

            
            
Suggest correction
Creating personal tab
Creating personal tab
You can edit any tab online and save it as your Personal.

You can edit, replace or remove any tab part or add personal notes – all changes will be seen only by you.

Personal tabs can be accessed anytime from any device, even offline.
Learn more »
Give kudos to tab author, rate the tab!
1 2 3 4 5
comments
print report bad tab
guest
You may want to rate the tab now too:
select rating
Wanna post a correction for this tab? Suggest correction