Oops, an error
Loading. Please wait.

Hullu tab

by Juju
1,411 views 42 this week
no commentswrite comment
1 2 3 4 5
1 last vote to show rating
add to favorites
×
Save as Personal and add changes to this tab that will be seen only by you. Learn more ›
×
You can save this tab as Personal to edit and correct it or add notes. All changes will be seen only by you. Learn more »
launch autoscroll
font size
0
reset
how to read this tab
guitar tuner
edit
Autoscroll
slow
fast
+/-
esc
set tempo
stop
Song: Hullu
Artist: Juju

Capo 8
(Can also be played with Capo 6 when tuning is F# B E A C# F#)

Tuning: Standard tuning (E A D G B E)

Strumming pattern: It's really easy to figure out, listen to the last 15 seconds of the song.

Chords:

    C        D        Em       G        Gadd4
e|--0--------2--------0--------3--------3--|
B|--1--------3--------0--------0--------1--|
G|--0--------2--------0--------0--------0--|
D|--2--------0--------2--------0--------0--|
A|--3--------x--------2--------2--------2--|
E|--x--------x--------0--------3--------3--|


[Intro]

e|--------0-----------0-------|------0-----------0-------|------3-----------3-------|
B|-----------0-----------0----|---------1-----------1----|---------0-----------0----|
G|--------------------------0-|----------------0-------0-|------------------------0-|
D|------2-----------2---------|----2-------0h2-----------|----0-----------0---------|
A|----2-----------2-----------|-3------------------------|--------------2-----------|
E|--0-----------0-------------|--------------------------|-3----------3-------------|

e|-------2-----------2--------|
B|----------3------3----3-----|
G|-----2-------0h2---------2--|
D|--0-------------------------|
A|----------------------------|
E|----------------------------|


[Verse]

e|--------0-----------0-------|------0-----------0-------|------3-----------3-------|
B|-----------0-----------0----|---------1-----------1----|---------0-----------0----|
G|--------------------------0-|----------------0-------0-|------------------------0-|
D|------2-----------2---------|----2-------0h2-----------|----0-----------0---------|
A|----2-----------2-----------|-3------------------------|--------------2-----------|
E|--0-----------0-------------|--------------------------|-3----------3-------------|
     No nyt mä sen kekkasin   Mä taidan olla pikkasen sekasin   Katsoin maailmaa

e|-------2-----------2--------|
B|----------3------3----3-----|
G|-----2-------0h2---------2--|
D|--0-------------------------|
A|----------------------------|
E|----------------------------|
      Ja näin mä sen kelasin

e|--------0-----------0-------|------0-----------0-------|------3-----------3-------|
B|-----------0-----------0----|---------1-----------1----|---------0-----------0----|
G|--------------------------0-|----------------0-------0-|------------------------0-|
D|------2-----------2---------|----2-------0h2-----------|----0-----------0---------|
A|----2-----------2-----------|-3------------------------|--------------2-----------|
E|--0-----------0-------------|--------------------------|-3----------3-------------|
    Taidan olla väärin päin   Tai sit koko maailman väärin nään    Ja mä päätin näin

e|-------2-----------2--------|
B|----------3------3----3-----|
G|-----2-------0h2---------2--|
D|--0-------------------------|
A|----------------------------|
E|----------------------------|
     Nyt hihani käärin näin

e|--------0-----------0-------|------0-----------0-------|------3-----------3-------|
B|-----------0-----------0----|---------1-----------1----|---------0-----------0----|
G|--------------------------0-|----------------0-------0-|------------------------0-|
D|------2-----------2---------|----2-------0h2-----------|----0-----------0---------|
A|----2-----------2-----------|-3------------------------|--------------2-----------|
E|--0-----------0-------------|--------------------------|-3----------3-------------|
     Kaikki korttini pelasin  Salaisuuteni suurimmat paljastin  Ja ne voimaksi valjastin

e|-------2-----------2--------|
B|----------3------3----3-----|
G|-----2-------0h2---------2--|
D|--0-------------------------|
A|----------------------------|
E|----------------------------|
    Varokaa valheenpaljastin


[Pre-Chorus]

C                        D
"Alasti kelluen lumpeenlehdel
                Em
Laulain työtäni tehden

Ei purista vyötäni
G
Eikä häiritse liskot mun yötäni


[Chorus]

C                         D                          Em  
Sitä voi valjastaa voimansa, jos uskoo siihen voivansa
                G
Ei sil oo välii mist oon tullu
C                       D
Vaan sil et millanen mä oon
                     Em
Ja oonko valmiina mä oon
                G
Ei sil oo välii et oon hullu
C
Oo, oo, oo
D
Oo, oo, oo
Em
Oo, oo, oo
G
O-oon hullu
C
O-oon hullu
   D
Mä o-oon hullu
   Em
Mä o-oon hullu
G
O-oon hullu"


[Verse]

e|--------0-----------0-------|------0-----------0-------|------3-----------3-------|
B|-----------0-----------0----|---------1-----------1----|---------0-----------0----|
G|--------------------------0-|----------------0-------0-|------------------------0-|
D|------2-----------2---------|----2-------0h2-----------|----0-----------0---------|
A|----2-----------2-----------|-3------------------------|--------------2-----------|
E|--0-----------0-------------|--------------------------|-3----------3-------------|
  Oon tiennyt sen mitä en tiedä     Oon nähnyt henkiä    Oon kulkenut paljaat varpaat kenkinä

e|-------2------------2--------|------------------------|
B|----------3------3-----3-----|------------------------|
G|-----2-------0h2----------2--|------------------------|
D|--0--------------------------|------------------------| *This part is silent, only drums and bass is heard
A|-----------------------------|------------------------|
E|-----------------------------|------------------------|
     Minä itse itseni renkinä   Oon esiintyny Jeesuksena

e|-------0------------3-------|-------3--------------3--------|-----3-----------2-------|
B|----------1------------1----|----------0--------------0-----|--------2------3----3----|
G|-----------------0--------0-|----------------------------0--|---2-------0h2--------2--|
D|----2--------0h2------------|----0--------------0-----------|-0-----------------------|
A|-3--------------------------|----------------2--------------|-------------------------|
E|----------------------------|-3-----------3-----------------|-------------------------|
     Levittänyt ilosanomaa       Mul on aina paljon sanottavaa   Mut neki on vaan sanoja

e|--------0-----------0-------|------0-----------0-------|------3-----------3-------|
B|-----------0-----------0----|---------1-----------1----|---------0-----------0----|
G|--------------------------0-|----------------0-------0-|------------------------0-|
D|------2-----------2---------|----2-------0h2-----------|----0-----------0---------|
A|----2-----------2-----------|-3------------------------|--------------2-----------|
E|--0-----------0-------------|--------------------------|-3----------3-------------|
    Oon avoin mielensäästäni   Avoimesti sekaisin päästäni   Siks kai oon niin huoleton

e|-------2-----------2--------|
B|----------3------3----3-----|
G|-----2-------0h2---------2--|
D|--0-------------------------|
A|----------------------------|
E|----------------------------|
    Tiedän olevani kuolematon


[Pre-Chorus]

C                        D
"Alasti kelluen lumpeenlehdel
                Em
Laulain työtäni tehden

Ei purista vyötäni
G
Eikä häiritse liskot mun yötäni


[Chorus]

C                         D                         Em  
Sitä voi valjastaa voimansa, jos uskoo siihen voivansa
                G
Ei sil oo välii mist oon tullu
C                       D
Vaan sil et millanen mä oon
                     Em
Ja oonko valmiina mä oon
                G
Ei sil oo välii et oon hullu
C
Oo, oo, oo
D
Oo, oo, oo
Em
Oo, oo, oo
G
O-oon hullu
C
O-oon hullu
   D
Mä o-oon hullu
   Em
Mä o-oon hullu
G
O-oon hullu
C
O-oon hullu
   D
Mä o-oon hullu
   Em
Mä o-oon hullu
N.C.*                  *Pay attention that any chord isn't played here (N.C. = No Chord)*
O-oon hullu
C                         D                         Em
Sitä voi valjastaa voimansa, jos uskoo siihen voivansa
                G
Ei sil oo välii mist oon tullu
C                       D
Vaan sil et millanen mä oon
                     Em
Ja oonko valmiina mä oon
                G
Ei sil oo välii et oon hullu


[Outro]

C   D   Em   G-Gadd4
Suggest correction
Creating personal tab
Creating personal tab
You can edit any tab online and save it as your Personal.

You can edit, replace or remove any tab part or add personal notes – all changes will be seen only by you.

Personal tabs can be accessed anytime from any device, even offline.
Learn more »
Give kudos to tab author, rate the tab!
1 2 3 4 5
comments
print report bad tab
guest
You may want to rate the tab now too:
select rating
Wanna post a correction for this tab? Suggest correction