Oops, an error
Loading. Please wait.

Throw It Away intro tab

version 1
version 1

Intro

Whole song

668 views 1 this week
1 commentread comment
1 2 3 4 5
2 more votes to show rating
add to favorites
×
Save as Personal and add changes to this tab that will be seen only by you. Learn more ›
×
You can save this tab as Personal to edit and correct it or add notes. All changes will be seen only by you. Learn more »
launch autoscroll
font size
0
reset
how to read this tab
guitar tuner
edit
Autoscroll
slow
fast
+/-
esc
set tempo
stop
Difficulty
intermediate
hey um well this is my first tab so yeh, it sounds right to me
Intro:
-|------------------------------------|
-|------------------------------------|
-|------------8-----------------------|
-|---6-9-8-6-----6---6---6---9-9-8----|
-|-----------------9---9--------------|
-|------------------------------------|

Verse:

-|--------------------------------------------------------------------|
-|--------------------------------------------------------------------|
-|--------------------------------------------------------------------|
-|---4-4-4----4-4-4----4-4-4----9-9-9----2-2-2----2-2-2----2-2-2----4-|
-|---4-4-4----4-4-4----4-4-4----9-9-9----2-2-2----2-2-2----2-2-2----4-|
-|---6-6-6----6-6-6----6-6-6----7-7-7-------------------------------2-|

standard tuning, enjoy

            
            
Suggest correction
Creating personal tab
Creating personal tab
You can edit any tab online and save it as your Personal.

You can edit, replace or remove any tab part or add personal notes – all changes will be seen only by you.

Personal tabs can be accessed anytime from any device, even offline.
Learn more »
Give kudos to tab author, rate the tab!
1 2 3 4 5
comments
print report bad tab
1 comment total.
0 reply
Kirenjob 10 Apr 22, 2007 02:12 AM

Uhh.. Intro is wrong.. But is a point to work off. The other part is right besides the last chord. But instead of just

D|--2-2-2---
A|--2-2-2--- ect.. Have the E string playing aswell(open)..
Thanks it helped me get the song :)

guest
Wanna post a correction for this tab? Suggest correction