Oops, an error
Loading. Please wait.

Until The End Tab

81 views 1 this week
no commentswrite comment
1 2 3 4 5
please rate
add to favorites
launch autoscroll
font size
0
reset
how to read this tab
guitar tuner
Autoscroll
slow
fast
+/-
esc
set tempo
stop
Help us to improve Ultimate-Guitar.com Take our survey!
×
Difficulty
intermediate
Until the end by Jul Erades

www.julerades.com
to listen : http://www.youtube.com/watch?v=LTbZZTSF7yQ


Intro & chorus
      Bm7            E7              AM7           AM7    
E ------X-------|------X-------|------X-------|-----X-------|
B ------7-------|------5-------|------5-------|-----5-------|
G----- --7------|------7-------|------6-------|-----6-------|
D ------7-------|------6-------|------6-------|-----6-------|
A ------X-------|------7-------|------X-------|-----X-------|
E ------7-------|------X-------|------5-------|-----5-------|


Riff throughout verse 1 & 2
    Bm7    E7      AM7   AM7    Bm7    E7      AM7   AM7
E -------------|-------------|-------------|------------|
B -------------|-------------|-------------|------------|
G--------------|------4-5-6--|-------------|------------|
D -------------|-------------|-------------|------------|
A ------6-7----|------4-5-7--|-----9-7-----|---7777-5-7-|
E -7---------4-|-5-----------|-7---------4-|-5----------|

Verse 1

Bm         E7          AM7               AM7
Like wheels, my feet wear out the ground and
Like tears, my arms are falling easy 
When you tell me, tell me and tell me :
Fine !...

through my heart your smile blows my flame down
I wanna do ... don't do ... don't freak here!!!!
when you kill me, kill me and kill me 
in my mind!!!!

Chorus

Bring me in your whisper
Bring me till the end

Verse2

You got to believe in a true love from your best dreams,
Girl, in your eyes, you let me see your worst fears!!
But you lie to me, lie to me and lie to me,
Through your smile!!!!!!

Be a woman, be yourself...that just what I need!!
A perfect girl from a tale, ...it's you who I need!!
So you bring me, and bring me and bring me
To your heart!!!

Chorus

Bring me in your whisper
Bring me till the end
Bring me in your whisper
Bring me till the end

Bridge

     E   F    F#m7        B7      E   F   F#m7           E7
E -X--X---9----|----|----|-7--|--X--X---9---|----|----|-X-X-X-|
B -X--X---10---|----|----|-7--|--X--X---10--|----|----|-5-5-5-|
G -9--10--9----|----|----|-8--|--9--10--9---|----|----|-7-7-7-|
D -9--10--11---|----|----|-7--|--9--10--11--|----|----|-6-6-6-|
A -7--8---9----|----|----|-9--|--7--8---9---|----|----|-7-7-X-|
E -X--X---X----|----|----|-7--|--X--X---X---|----|----|-X-X-0-|

You tear the heart and dreams,
That's all the truth you let me see.
So make a place for me, and I will be the man...

Chorus

The man of your whisper
The man till the end
The man of your whisper
The man till the end
comments
We did not receive enough feedback on this tab! Please rate:
print report bad tab
1 2 3 4 5
I want to post or [tab]
guest
You may want to rate the tab now too:
select rating
Please do not post tabs as comments. Select "correction" instead!