Oops, an error
Loading. Please wait.

Wer Von Euch bass

by Juli
415 views 3 this week
no commentswrite comment
1 2 3 4 5
3 more votes to show rating
add to favorites
×
Save as Personal and add changes to this tab that will be seen only by you. Learn more ›
×
You can save this tab as Personal to edit and correct it or add notes. All changes will be seen only by you. Learn more »
launch autoscroll
font size
0
reset
guitar tuner
edit
Autoscroll
slow
fast
+/-
esc
set tempo
stop
WER VON EUCH by Juli
(Capo on 5th)

STROPHE 1:
G|-----0-----0---0---------------0-|
D|-----------------4-----4-----4---|
A|-3-3---3-3---3-----3-3---3-3-----|
E|---------------------------------|
Vielleicht, vielleicht, vielleicht

G|---------------------------------|
D|-----4-----4---4-----4-----4---4-|
A|-2-2---2-2---2---2-2---2-2---2---|
E|---------------------------------|
Ist das alles gar nicht wichtig

G|-----0-----0---0---------------0-|
D|-----------------4-----4-----4---|
A|-3-3---3-3---3-----3-3---3-3-----|
E|---------------------------------|
Vielleicht nenn' ich das Spaß

G|---------------------------------|
D|-----4-----4---4-----4-----4---4-|
A|-2-2---2-2---2---5-5---5-5---5---|
E|---------------------------------|
Und in Wahrheit bin ich süchtig


G|-----0-----0---0---------------0-|
D|-----------------4-----4-----4---|
A|-3-3---3-3---3-----3-3---3-3-----|
E|---------------------------------|
Vielleicht, vielleicht, vielleicht

G|---------------------------------|
D|-----4-----4---4-----4-----4---4-|
A|-2-2---2-2---2---2-2---2-2---2---|
E|---------------------------------|
Nehm ich viel zu viel in Kauf

G|-----0-----0---0---------------0-|
D|-----------------4-----4-----4---|
A|-3-3---3-3---3-----3-3---3-3-----|
E|---------------------------------|
Ich fange selten etwas an

G|---------------------------------|
D|-----4-----4---4-----4-----4---4-|
A|-2-2---2-2---2---5-5---5-5---5---|
E|---------------------------------|
Aber wenn hör' ich nicht auf


CHORUS:
C				    Em			D
Wen soll ich suchen, was soll ich finden, wer von euch hält mich ab?
C				    G		    D
Wen soll ich suchen, wen soll ich lieben wenn ich dich nicht hab?
C				    Em			D
Wen soll ich suchen, was soll ich finden, wer von euch hält mich ab?
C				    G		    D
Wen soll ich suchen, wen soll ich lieben wenn ich dich nicht hab?


STROPHE 2 (same as strophe 1):
Ich weiß, ich weiß, ich weiß
Was es heißt sich zu verliern
Wenn man schon weiß wohin was führt
Und es trotzdem zu probiern

Ich weiß, ich weiß, ich weiß
Ich hab es selber in der Hand
Ich halt es fest und lass nich los
Und schreib die Worte an die Wand


I'm almost entirelly sure that this is right - but if you have any tips or corrections please tell me!

            
            
Suggest correction
Creating personal tab
Creating personal tab
You can edit any tab online and save it as your Personal.

You can edit, replace or remove any tab part or add personal notes – all changes will be seen only by you.

Personal tabs can be accessed anytime from any device, even offline.
Learn more »
Give kudos to tab author, rate the tab!
1 2 3 4 5
comments
print report bad tab
guest
You may want to rate the tab now too:
select rating
Wanna post a correction for this tab? Suggest correction