Oops, an error
Loading. Please wait.

Library Tab

10 views 1 this week
no commentswrite comment
1 2 3 4 5
3 more votes to show rating
add to favorites
launch autoscroll
font size
0
reset
how to read this tab
guitar tuner
Autoscroll
slow
fast
+/-
esc
set tempo
stop
Help us to improve Ultimate-Guitar.com Take our survey!
×
Difficulty
intermediate
Fingerpicking 

E|-------------------5-------5-----|
B|---------7-----7-----7-------7---|
G|-----7-----7-----7-----7-6-----6-|
D|-5-5---5-----5-------------------|
A|---------------------------------|
E|---------------------------------|

E|---------5-----------------------|
B|-----3-----3-------------8-8-7-7-|
G|-4-4---4-----4-0-----6-6---------|
D|-----------------7-7-------------|
A|---------------------------------|
E|---------------------------------|


Lyrics:

i was in the library
i heard your name in my ear
my friends blame ghosts
when i went outside
the sky was turning black.
i saw you in the library
even though you’re two states away
my friends blame ghosts
when i went outside
it was just beginning to rain.
driving home i wondered
when you go to sleep do you dream of me?
Suggest correction
Give kudos to tab author, rate the tab!
1 2 3 4 5
comments
print report bad tab
guest
You may want to rate the tab now too:
select rating
Wanna post a correction for this tab? Suggest correction