Oops, an error
Loading. Please wait.
We have Chord Pro version of Issues.
It's the closest thing you can get to the original song and it has interactive parts. Check out the tab »
×

Issues intro tab

version 1
version 1

Intro

Whole song

  • Fingerstyle arrangement by Andrew Foy.
  • The song that this tab was synced to: https://www.... Show more
  • This is a simplified version so you can sing along... Show more

Interactive

10,030 views 114 this week
5 commentsread comments
1 2 3 4 5
x 31
add to favorites
×
Save as Personal and add changes to this tab that will be seen only by you. Learn more ›
×
You can save this tab as Personal to edit and correct it or add notes. All changes will be seen only by you. Learn more »
launch autoscroll
font size
0
reset
how to read this tab
guitar tuner
edit
Autoscroll
slow
fast
+/-
esc
set tempo
stop
=========================
 Julia Michaels - Issues
=========================
No capo

[Intro] 
   Db       Eb        Ab/C    Dbsus2
e|-------------------------------------|
B|------------------------9-------9----|
G|-----10--------12-------8-------8----|
D|-----11--------13-------6-------6----|
A|-----11--------13-------x-------x----|
E|-9---9----11---11---8---8---9---9----|

Simplified version:
   Db      Eb      Ab/C    Dbsus2
e|---------------------4-------4----|
B|-----6-------8-------4-------4----|
G|-----6-------8--------------------|
D|----------------------------------|
A|-4-------6-------3-------4--------|
E|----------------------------------|

________________________________________
x - Dead note

            
            
Suggest correction
Creating personal tab
Creating personal tab
You can edit any tab online and save it as your Personal.

You can edit, replace or remove any tab part or add personal notes – all changes will be seen only by you.

Personal tabs can be accessed anytime from any device, even offline.
Learn more »
comments
print report bad tab
5 comments total. Showing first comments. show 1 bad comment
0 reply
xwhaleandsnailx 10 Apr 15, 2017 05:05 PM

👍

+24 reply
tonibrooks1221 10 Apr 23, 2017 02:06 AM

Why do you need to be so rude??

guest
You may want to rate the tab now too:
select rating
Wanna post a correction for this tab? Suggest correction