Oops, an error
Loading. Please wait.
We have Chord Pro version of Issues.
It's the closest thing you can get to the original song and it has interactive parts. Check out the tab »
×

Issues tab

version 2
version 2

Whole song

  • Fingerstyle arrangement by Andrew Foy.
  • The song that this tab was synced to: https://www.... Show more
  • This is a simplified version so you can sing along... Show more

Interactive

829 views 27 this week
1 commentread comment
1 2 3 4 5
1 last vote to show rating
add to favorites
×
Save as Personal and add changes to this tab that will be seen only by you. Learn more ›
×
You can save this tab as Personal to edit and correct it or add notes. All changes will be seen only by you. Learn more »
launch autoscroll
font size
0
reset
how to read this tab
guitar tuner
edit
Autoscroll
slow
fast
+/-
esc
set tempo
stop
[Intro] 
(0:05-0:13)
    C            D            G            Em
e|-------0----|-------2----|-------3----|-------0----|
B|-------1----|-------3----|-------0----|-------0----|
G|-------0----|-------2----|-------0----|-------0----|
D|-------2----|--0--0------|-------0----|-------2----| (x1)
A|--3--3------|------------|-------2----|-------2----|
E|------------|------------|--3--3------|--0--0------|

[Verse 1] 
(0:13-0:30)
    C            D            G            Em
e|-------0----|-------2----|-------3----|-------0----|
B|-------1----|-------3----|-------0----|-------0----|
G|-------0----|-------2----|-------0----|-------0----|
D|-------2----|--0--0------|-------0----|-------2----| (x3)
A|--3--3------|------------|-------2----|-------2----|
E|------------|------------|--3--3------|--0--0------|

[Pre-Chorus] 
(0:30-0:47)
    C            D            G                 Em
e|-------0----|-------2----|-------------3----|-------0----|
B|-------1----|-------3----|-------------0----|-------0----|
G|-------0----|-------2----|-----------0------|-------0----|
D|-------2----|--0--0------|---------0--------|-------2----| (x2)
A|--3--3------|------------|-------2----------|-------2----|
E|------------|------------|--3--3------------|--0--0------|

[Chorus] 
(0:47-1:09)
    C            D            G            Em                 C            D
e|-------0----|-------2----|-------3----|-------0----|     |--0---------|--2---------|
B|-------1----|-------3----|-------0----|-------0----|     |--1---------|--3---------|
G|-------0----|-------2----|-------0----|-------0----|     |--0---------|--2---------|
D|-------2----|--0--0------|-------0----|-------2----|(x2) |--2---------|--0---------| (x1)
A|--3--3------|------------|-------2----|-------2----|     |--3---------|------------|
E|------------|------------|--3--3------|--0--0------|     |------------|------------|

[Verse 2] 
(1:09-1:25)
    C            D            G            Em
e|-------0----|-------2----|-------3----|-------0----|
B|-------1----|-------3----|-------0----|-------0----|
G|-------0----|-------2----|-------0----|-------0----|
D|-------2----|--0--0------|-------0----|-------2----| (x2)
A|--3--3------|------------|-------2----|-------2----|
E|------------|------------|--3--3------|--0--0------|

[Pre-Chorus] 
(1:25-1:42)
    C            D            G                 Em
e|-------0----|-------2----|-------------3----|-------0----|
B|-------1----|-------3----|-------------0----|-------0----|
G|-------0----|-------2----|-----------0------|-------0----|
D|-------2----|--0--0------|---------0--------|-------2----| (x2)
A|--3--3------|------------|-------2----------|-------2----|
E|------------|------------|--3--3------------|--0--0------|

[Chorus] 
(1:42-2:03)
    C            D            G            Em                 C            D
e|-------0----|-------2----|-------3----|-------0----|     |--0---------|--2---------|
B|-------1----|-------3----|-------0----|-------0----|     |--1---------|--3---------|
G|-------0----|-------2----|-------0----|-------0----|     |--0---------|--2---------|
D|-------2----|--0--0------|-------0----|-------2----|(x2) |--2---------|--0---------| (x1)
A|--3--3------|------------|-------2----|-------2----|     |--3---------|------------|
E|------------|------------|--3--3------|--0--0------|     |------------|------------|

[Post-Chorus] 
(2:03-2:19)
    C            D            G                 Em
e|-------0----|-------2----|-------------3----|-------0----|
B|-------1----|-------3----|-------------0----|-------0----|
G|-------0----|-------2----|-----------0------|-------0----|
D|-------2----|--0--0------|---------0--------|-------2----| (x2)
A|--3--3------|------------|-------2----------|-------2----|
E|------------|------------|--3--3------------|--0--0------|

[Outro] 
(2:19-2:58)
    C            D            G            Em                 C            D            G (Optional)
e|-------0----|-------2----|-------3----|-------0----|     |--0---------|--2---------|--3--------|
B|-------1----|-------3----|-------0----|-------0----|     |--1---------|--3---------|--0--------|
G|-------0----|-------2----|-------0----|-------0----|     |--0---------|--2---------|--0--------|
D|-------2----|--0--0------|-------0----|-------2----|(x4) |--2---------|--0---------|--0--------| (x1)
A|--3--3------|------------|-------2----|-------2----|     |--3---------|------------|--2--------|
E|------------|------------|--3--3------|--0--0------|     |------------|------------|--3--------|

            
            
Suggest correction
Creating personal tab
Creating personal tab
You can edit any tab online and save it as your Personal.

You can edit, replace or remove any tab part or add personal notes – all changes will be seen only by you.

Personal tabs can be accessed anytime from any device, even offline.
Learn more »
Give kudos to tab author, rate the tab!
1 2 3 4 5
comments
print report bad tab
1 comment total.
0 reply
jcoolip 10 Jun 05, 2017 05:46 PM

The youtube song provided (twice) has slides and pulloffs and is a beautiful version. This still sounds good but it seems to basically be chords with a couple bass notes as opposed to what that guy plays

guest
You may want to rate the tab now too:
select rating
Wanna post a correction for this tab? Suggest correction