Oops, an error
Loading. Please wait.

Dont Feel Tab

25 views 1 this week
no commentswrite comment
1 2 3 4 5
3 more votes to show rating
add to favorites
launch autoscroll
font size
0
reset
how to read this tab
guitar tuner
Autoscroll
slow
fast
+/-
esc
set tempo
stop
Help us to improve Ultimate-Guitar.com Take our survey!
×
Author
Difficulty
About this tab version
This tab is more accurate to Julia Nunes's album for the guitar. These accurately represent the correct chords to play. Was this info helpful? Yes No
For the verse words are only sung on the first and last Chords.
These chords are plucked as opposed to strummed

Chorus is strummed but still lightly

N.C. = no chords

[Intro]
e|--------------------------------------|
B|--------------------------------------|
G|--5-----------------------------------|
D|--6--------5--------6--------6--------|
A|--6--------6--------8--------7--------|
E|--4--------4--------------------------|

[Verse 1]
e|--------------------------------------|
B|--------------------------------------|
G|--5-----------------------------------|
D|--6--------5--------6--------6--------|
A|--6--------6--------8--------7--------|
E|--4--------4--------------------------|
    I...                     knew it was
e|--------------------------------------|
B|--------------------------------------|
G|--5-----------------------------------|
D|--6--------5--------6--------6--------|
A|--6--------6--------8--------7--------|
E|--4--------4--------------------------|
   right                      To be 

e|--------------------------------------|
B|--------------------------------------|
G|--5-----------------------------------|
D|--6--------5--------6--------6--------|
A|--6--------6--------8--------7--------|
E|--4--------4--------------------------|
alone tonight                While I sat here and 

e|--------------------------------------|
B|--------------------------------------|
G|--5-----------------------------------|
D|--6--------5--------6--------6--------|
A|--6--------6--------8--------7--------|
E|--4--------4--------------------------|
watched you cry


[Chorus]

e|--------------------------------|
B|--------------------------------|
G|--5-5-------1-1-----------------|
D|--6-6--5-5--3-3-----------------|
A|--6-6--6-6--4-4-----------------|
E|--4-4--4-4----------------------|
and I  dooont ffffeel... anything

e|--------------------------------|
B|--------------------------------|
G|--5-5-------1-1-----------------|
D|--6-6--5-5--3-3-----------------|
A|--6-6--6-6--4-4-----------------|
E|--4-4--4-4----------------------|
    I  dooont ffffeel... anything
e|--------------------------------|
B|--------------------------------|
G|--5-5-------1-1-----------------|
D|--6-6--5-5--3-3-----------------|
A|--6-6--6-6--4-4-----------------|
E|--4-4--4-4----------------------|
    I  dooont ffffeel... anything

e|--------------------------------|
B|--------------------------------|
G|--5-5-------1-1-----------------|
D|--6-6--5-5--3-3-----------------|
A|--6-6--6-6--4-4-----------------|
E|--4-4--4-4----------------------|
    I  doooooont                    


[Verse 2]

N.C.
I've been

e|--------------------------------------|
B|--------------------------------------|
G|--5-----------------------------------|
D|--6--------5--------6--------6--------|
A|--6--------6--------8--------7--------|
E|--4--------4--------------------------|
   Frozen                     Fragile and

e|--------------------------------------|
B|--------------------------------------|
G|--5-----------------------------------|
D|--6--------5--------6--------6--------|
A|--6--------6--------8--------7--------|
E|--4--------4--------------------------|
    Afraid       But it's too easy to

("But" starts right after the third chord and "easy" lands on the 4th chord)

e|--------------------------------------|
B|--------------------------------------|
G|--5-----------------------------------|
D|--6--------5--------6--------6--------|
A|--6--------6--------8--------7--------|
E|--4--------4--------------------------|
 Manipulate            Like I'm Watching from

e|--------------------------------------|
B|--------------------------------------|
G|--5-----------------------------------|
D|--6--------5--------6--------6--------|
A|--6--------6--------8--------7--------|
E|--4--------4--------------------------|
  Outer space

[Chorus]

e|--------------------------------|
B|--------------------------------|
G|--5-5-------1-1-----------------|
D|--6-6--5-5--3-3-----------------|
A|--6-6--6-6--4-4-----------------|
E|--4-4--4-4----------------------|
and I  dooont ffffeel... anything

e|--------------------------------|
B|--------------------------------|
G|--5-5-------1-1-----------------|
D|--6-6--5-5--3-3-----------------|
A|--6-6--6-6--4-4-----------------|
E|--4-4--4-4----------------------|
    I  dooont ffffeel... anything
e|--------------------------------|
B|--------------------------------|
G|--5-5-------1-1-----------------|
D|--6-6--5-5--3-3-----------------|
A|--6-6--6-6--4-4-----------------|
E|--4-4--4-4----------------------|
    I  dooont ffffeel... anything

e|--------------------------------------|
B|--------------------------------------|
G|--5-5-------1-1--1-1--1-1--1-1--------|
D|--6-6--5-5--3-3--3-3--3-3--3-3--------|
A|--6-6--6-6--4-4--4-4--4-4--4-4--------|
E|--4-4--4-4----------------------------|
    I  doooooont                    

[Bridge]
e|--------4--------------------------1----|
B|----------------------------------------|
G|--1-------------------------------------|
D|-----3-----------------------3----------|
A|--------------------------------4-------|
E|----------------------------------------|
            It't like I took a break
e|--------4--------------------------3----|
B|----------------------------------------|
G|----------------------------------------|
D|-----1--------------------------1-------|
A|--3--------------------------1----------|
E|----------------------------------------|
          Years with nothing         To say

e|--------4--------------------------1----|
B|----------------------------------------|
G|--1-------------------------------------|
D|-----3-----------------------3----------|
A|--------------------------------4-------|
E|----------------------------------------|
     Now I know that my mistake
e|--------4--------------------------3----|
B|----------------------------------------|
G|----------------------------------------|
D|-----1--------------------------1-------|
A|--3--------------------------1----------|
E|----------------------------------------|
Wasn't loving you           It was letting that get in the way

[Chorus]

N.C. (Ukelele only)
Cus I  dooont ffffeel... anything

N.C. (Ukelele only)
    I  dooont ffffeel... anything

e|--------------------------------|
B|--------------------------------|
G|--5-5-------1-1-----------------|
D|--6-6--5-5--3-3-----------------|
A|--6-6--6-6--4-4-----------------|
E|--4-4--4-4----------------------|
    I  dooont ffffeel... anything

e|--------------------------------------|
B|--------------------------------------|
G|--5-5-------1-1--1-1--1-1--1-1--------|
D|--6-6--5-5--3-3--3-3--3-3--3-3--------|
A|--6-6--6-6--4-4--4-4--4-4--4-4--------|
E|--4-4--4-4----------------------------|
    I  doooooont, no I don't                  

e|--------------------------------|
B|--------------------------------|
G|--5-5-------1-1-----------------|
D|--6-6--5-5--3-3-----------------|
A|--6-6--6-6--4-4-----------------|
E|--4-4--4-4----------------------|
No I don't        no I don't
e|--------------------------------------|
B|--------------------------------------|
G|--5-5-------1-1--1-1--1-1--1-1--------|
D|--6-6--5-5--3-3--3-3--3-3--3-3--------|
A|--6-6--6-6--4-4--4-4--4-4--4-4--------|
E|--4-4--4-4----------------------------|
No I don't       no I don't
e|--------------------------------------|
B|--------------------------------------|
G|--5-5-------1-1--1-1--1-1--1-1--------|
D|--6-6--5-5--3-3--3-3--3-3--3-3--------|
A|--6-6--6-6--4-4--4-4--4-4--4-4--------|
E|--4-4--4-4----------------------------|
No I don't       no I don't

N.C.
No I don't, I don't, I don't
Suggest correction
Give kudos to tab author, rate the tab!
1 2 3 4 5
comments
print report bad tab
guest
You may want to rate the tab now too:
select rating
Wanna post a correction for this tab? Suggest correction